VÍDEO AULAS

PARA ASSISTIR AULAS DE: VIOLÃO; GUITARRA; TECLADO E BAIXO, VÁ NOS MARCADORES: DICAS

Tablatura: Chord Melody 51 : I want to know what love is ( Acorde - Melodia - Solo - Violão e Guitarra)

I want to know what love is
By Jeffão Peres

E-----------------1---------------------------------------------------------
B---------------------1---3------------------------------------------------
G--2---0---------------------2---3---2---0---2---------------------2--
D--3---2---3---------------------3---3---2---3-----------------3--3--
A--5---3---3---------------------1---5---3---5--------3---5------5--
E-------0---1----------------------------------------5--------------------

E----------------------------------------------------------------------------------------------
B----------------------------------------------------------------------------------------------
G---2---2---2---2---0---0------------0---2---3---2---0--------2---2-----------------2--
D-----------------3--------2---3---3------------3------------3---3------------------3--3--
A-----------------5--------3--------3------------1-----------------5----------3---5-----5--
E---------------------------0--------1---------------------------------------5---------------

E----------------------------------------------------------------------------------
B----------------------------------------------------------------------------------
G---2---2---2---2---0---0----------------0---2---3---2---0--------2---2--
D-----------------3--------2---3---3---3-----------3------------3---3-------
A-----------------5--------3--------3----------------1-----------------5-------
E---------------------------0--------1-------------------------------------------

E-----------3---------------------5---3---3----------------------------3------------5---3-----
B--3---6--3---3---3---3---6---5-----------6----5---3-------3---6--3---3---6--5------6
G----------3--------3------------5----------------3--------------------3---3-------5---------
D--------------------3------------------------------3------------------------3----------------
A----------1----------------------3--------------------------------------1------------3---------
E--------------------1------------------------------3------------------------3------------------

E-----------------5---3------------------------5---3-----------------1---5---6----5---1------
B---5---3-------3-------6---5--3--3--3-----5------6---5---3-----3---6---3---6----3--3
G---3------------3-----------3----------------5-----------3---------3---5---3---5----3-----
D---3-------------------------3----------------------------3----------------------------------
A-----------------------------------------------3---------------------1---0--------0----3------
E---3-----------6------------3----------------------------3-------------------3---------------

E--------5---5---5---5------------3---3-------------------------6---5---5---5---3--
B---1---6-------------6---6---6-------1---1----------------3---3------------6---5--
G---2---5-------------5--------5-------0------0---2---3--------3------------5---5--
D---3---3-------------3--------0------------------------3----------------------0-------
A-----------------------------------------3-------------------------------------------3---
E---1------------------------------------------------------1--------3---------------------

E--------------------8---8---8---8------------------3-------------------------6---5---5---5-
B--1-------------------------------6---6---6---8---1---1----------------3---3------------6--
G-----0---2---2------------------5--------5--------0-------0---2----3-------3------------5-
D---------------3---------------------------0---------------------------3--------------------0-
A---------------3------------------8------------------3------------------------------------------
E---------------1--------------------------------------------------------3-------3---------------

E---3---3---3---3---3---3------------------------
B---5---5---6---6---5---5------------------------
G---5---5---5---5---5---5-----------------------
D-------------------------------------------3-------
A---3--------3--------3-----------3---5------5---
E-------------------------------5-------------------

Mais temas em Tablatura Chord Melody que você pode conferir em 
outras postagens:
Pomp and circumstance - Love me tender - Eu navegarei - Wave -
Pour Elise - Mais perto quero estar - Buscai primeiro - Not of this world -
Escorregando - Minueto - Nona Sinfonía - Jesus - Jazz blues 1 - Samba
de uma nota só - A Ele a glória ( porque Dele e por Ele ) - Vem! esta é
a hora - Oceano - O Barquinho - Sampa - Te agradeço - Meu bem 
querer - Garota de Ipanema - Eu sei que vou te amar - Carinhoso -
Coração de estudante - Este é o meu respirar - Assim como a corça -
A pantera cor de rosa - Em espírito e em verdade - Ele é exaltado -
Gente humilde - Poderoso Deus - Aclame ao Senhor - Santo! Santo!
Santo! cc9 - Yesterday - Over the rainbow - Os flintstones - Love of my
life - Quão preciosa são as horas - Pela luz dos olhos teus - My way -
Dei graças - Tristesse - Olha pra mim - Against all odds - True colors -
Heaven - Sonho de amor - Quanto amor - I want to know what love is -
Sou feliz com Jesus - Tears in heaven - Nos galhos secos - You'll be
in my heart