VÍDEO AULAS

PARA ASSISTIR AULAS DE: VIOLÃO; GUITARRA; TECLADO E BAIXO, VÁ NOS MARCADORES: DICAS

Tablatura: Chord Melody 50 : Quanto amor ( Acorde - Melodia - Solo - Violão e Guitarra)

Quanto amor
By Jeffão Peres

E--------------------------------2----------------------------------------------
B--------4---5----2---4---5-------5---4---5---7---2---4---5------4---5-
G---4-------------2---------------------4-------------4-----------4----------
D---6-------------4---------------------4-------------2-----------2----------
A-----------------------------------------6-------------0----------------------
E---0-------------0-------------------------------------------------4---------

E--5---4---2---------------------
B--2------------5---2---5---7--      Volta
G--2--------------------------6--        ao
D------------------------------7--      início
A----------------------------------
E--2--------------------------7--

E--4---4---4---5---7------------4-----------------------------------------5---4---4-
B--7----------------------5---7---------------------------------------------5---5---5-
G--4----------------------4------------6---6---4---4---4---4---4---4---6---4---4-
D--------------------------6--------------------4------------------4--------------------
A--------------------------4--------------------2------------------6--------------------
E--4--------------------------------------------------------------------------0---0---0-

E---2---2---------------------------------------------------------------------------5---4--
B---4---4---5---5----4---4---5---2---2---0---0---0---0---0----0---0---0---2-------
G---4---4---4---4--------4-------4--------2------------------2-----------------2-------
D----------- -2---2--------4-------2--------2------------------2--------------------------
A---4---4---4---4---------0-------0-----------------------------------------------2-------
E---------------------------------------------2------------------2--------------------------

E------------2---0---4---4---4---4----4---4---4---4---5---5-----------------------------
B--7---5---5-----------------------5-----------------2--------2---7---7---7--------------
G--6--------4----------------------4------------------2--------2---4-------4---4---4---4-
D--7-----------------------------------------------------------------4-------4---------------
A-------------------------------------------------------0--------0---6---------------------
E--7--------0--------0------------0------------------------------------------5---------------

E---5---4---4---2---2----------------------------------------------------------------5---4-
B---5--------5---4---4---5---5---4---4---5---2---2---0----0---0---0---0----0--5------
G---6--------4---4---4---4---4--------4-------4--------2--------1--------2-------6------
D---------------------------2---2--------4-------2--------2--------2--------2---------------
A------------------4---4---4---4--------0-------0---------------------------0---------------
E---0--------0---------------------------------------------2--------4-----------------7-----

E-------------2---0-
B---7---5---5------
G---4--------4-----
D---4---------------
A---6---------------
E-------------0-----

Mais temas em Tablatura Chord Melody que você pode conferir em 
outras postagens:
Pomp and circumstance - Love me tender - Eu navegarei - Wave -
Pour Elise - Mais perto quero estar - Buscai primeiro - Not of this world -
Escorregando - Minueto - Nona Sinfonía - Jesus - Jazz blues 1 - Samba
de uma nota só - A Ele a glória ( porque Dele e por Ele ) - Vem! esta é
a hora - Oceano - O Barquinho - Sampa - Te agradeço - Meu bem 
querer - Garota de Ipanema - Eu sei que vou te amar - Carinhoso -
Coração de estudante - Este é o meu respirar - Assim como a corça -
A pantera cor de rosa - Em espírito e em verdade - Ele é exaltado -
Gente humilde - Poderoso Deus - Aclame ao Senhor - Santo! Santo!
Santo! cc9 - Yesterday - Over the rainbow - Os flintstones - Love of my
life - Quão preciosa são as horas - Pela luz dos olhos teus - My way -
Dei graças - Tristesse - Olha pra mim - Against all odds - True colors -
Heaven - Sonho de amor - Quanto amor - I want to know what love is -
Sou feliz com Jesus - Tears in heaven - Nos galhos secos - You'll be
in my heart