VÍDEO AULAS

PARA ASSISTIR AULAS DE: VIOLÃO; GUITARRA; TECLADO E BAIXO, VÁ NOS MARCADORES: DICAS

Tablatura: Chord Melody 49 : Sonho de amor ( Acorde - Melodia - Solo - Violão e Guitarra)

Sonho de amor
By Jeffão Peres

E-------------------------------------------------------------------------------
B-------------------------------------------------------------------------------
G--------2---2---2---2---2---2---3---2--2----------------------2---0------
D--------3--------2---2---4------------4--0---0---0---2---3---2---2---3--
A---3---3--------4---4---5------------3---1-------1-------------3---1---3--
E--------1--------5---3---------------------3-------3----------------------1--

E--------5---5---5---5---5----5---6----5---10------------------5---3---1-
B--------6--------5---5---7----7---7----------8----3---5---6---5--------1-
G---5---5--------6---6---7----7---5---------10---3-------------3--------2-
D--------3-------------5---4----0---0----------9---5----------------------3-
A------------------0-------------------------------------------------3-----------
E------------------------------------------------------3--------------------------

E--1---1---0----1---3---5---5---5---4---5---7---9----8---5---5---5---5-
B-------2--------2-------6--------6--------6---6---8---11--6--------5---8-
G-------3--------3-------5--------7--------5---7---9----9---5--------6---6-
D--------------------------3--------0--------0------------------3----------------
A-------1--------1------------------------------------0-------------------7---7-
E------------------------------------------------------------8--------------------

E--5---5---6---5--10-------------------5---3---1--
B--7--------7---3---8----3----5---6---5--------1--
G--7--------5---2---7----3--------------3-------2---
D--0--------0--------------5----------------------3----
A-----------------3-----------------------3-------------
E---------------------7----3----------------------------

Mais temas em Tablatura Chord Melody que você pode conferir em 
outras postagens:
Pomp and circumstance - Love me tender - Eu navegarei - Wave -
Pour Elise - Mais perto quero estar - Buscai primeiro - Not of this world -
Escorregando - Minueto - Nona Sinfonía - Jesus - Jazz blues 1 - Samba
de uma nota só - A Ele a glória ( porque Dele e por Ele ) - Vem! esta é
a hora - Oceano - O Barquinho - Sampa - Te agradeço - Meu bem 
querer - Garota de Ipanema - Eu sei que vou te amar - Carinhoso -
Coração de estudante - Este é o meu respirar - Assim como a corça -
A pantera cor de rosa - Em espírito e em verdade - Ele é exaltado -
Gente humilde - Poderoso Deus - Aclame ao Senhor - Santo! Santo!
Santo! cc9 - Yesterday - Over the rainbow - Os flintstones - Love of my
life - Quão preciosa são as horas - Pela luz dos olhos teus - My way -
Dei graças - Tristesse - Olha pra mim - Against all odds - True colors -
Heaven - Sonho de amor - Quanto amor - I want to know what love is -
Sou feliz com Jesus - Tears in heaven - Nos galhos secos - You'll be
in my heart