VÍDEO AULAS

PARA ASSISTIR AULAS DE: VIOLÃO; GUITARRA; TECLADO E BAIXO, VÁ NOS MARCADORES: DICAS

Tablatura: Chord Melody 52 : Sou feliz com Jesus ( Acorde - Melodia - Solo - Violão e Guitarra)

Sou feliz com Jesus
By Jeffão Peres

E--3---3---1---0----0-------0---1----5---3---1---0---3---8---7---5-------
B-------1-------------0---3-------1----6---1---0---1---3---5---9---5---10--
G-------0---2---0---0------------2----5---2---0---0---0---5---7---5----7--
D-----------------------------------0----5------------------------------------7--
A-------3-------------------------------------0---2---3---2---0--------0--------
E----------------------3---------------------------------------------0---------8--

E-----------3----3----8----8---7---5---5---5---10---10----------7---5---3-
B--8---7---0----3----8----8---5---6---6---6---10---10---13----8----------
G--7---7---0----4----9----9---5---5---5---5----9----9-----------7---5---4-
D--5---7--------3---10---0--------3---3---------0---10---------------5---3-
A-------------------------------------------------------------------------------------
E--7---5---3---------------------0------------0-----------------------7-----------

E--8---8---8---8---7---8---8------------3------------1---3---3---3------5--3-
B--8---5---6---8---6--------8---8---8--0---3---5---3------------1---5--------
G--9---5---7---9---7--------9-----------0---4---5---0------------0---5--------
D---------------------5-------10---------------3---5--------------------------------
A-------7---8--10-----------------------------------------------------3---3--------
E--0----------------------------------------3---3---3---3---------------------------

E--0---3---5---5---8----8----7---8---8---
B--1---1---6---6---6----8----6--------8---
G--0---0---5---5---5----9----7--------9---
D-----------3-------------------5-------10--
A--3-----------------8---10-----------------
E------0--------0-----------------------------

Mais temas em Tablatura Chord Melody que você pode conferir em 
outras postagens:
Pomp and circumstance - Love me tender - Eu navegarei - Wave -
Pour Elise - Mais perto quero estar - Buscai primeiro - Not of this world -
Escorregando - Minueto - Nona Sinfonía - Jesus - Jazz blues 1 - Samba
de uma nota só - A Ele a glória ( porque Dele e por Ele ) - Vem! esta é
a hora - Oceano - O Barquinho - Sampa - Te agradeço - Meu bem 
querer - Garota de Ipanema - Eu sei que vou te amar - Carinhoso -
Coração de estudante - Este é o meu respirar - Assim como a corça -
A pantera cor de rosa - Em espírito e em verdade - Ele é exaltado -
Gente humilde - Poderoso Deus - Aclame ao Senhor - Santo! Santo!
Santo! cc9 - Yesterday - Over the rainbow - Os flintstones - Love of my
life - Quão preciosa são as horas - Pela luz dos olhos teus - My way -
Dei graças - Tristesse - Olha pra mim - Against all odds - True colors -
Heaven - Sonho de amor - Quanto amor - I want to know what love is -
Sou feliz com Jesus - Tears in heaven - Nos galhos secos - You'll be
in my heart