VÍDEO AULAS

PARA ASSISTIR AULAS DE: VIOLÃO; GUITARRA; TECLADO E BAIXO, VÁ NOS MARCADORES: DICAS

Contra Baixo: Escala Pentatônica 3/2 com Blue Note ( Solo e Improvisação)

By Jeffão Peres
A Escala Pentatônica 3/2 com Blue Note utiliza o mesmo
formato da Pentatônica 3/2, e apenas acrescenta-se uma
4° aumentada (#4)
Apesar deste grau (#4) ser chamado de Blue note, sua 
aplicação é bastante ampla e cabe bem em qualquer estilo
O que é importante salientar é que se tratando de Pentetônica
com Blue Note ( PentaBlues), o estado dela é sempre menor,
mesmo quando a tonalidade for maior
Ou seja: Se você estiver tocando na Tonalidade de DO Menor,
a Escala será a Pentatônica com Blue Note de DO Menor.
Se a Tonalidade for de DO Maior, a Escala também será a
Pentatônica com Blue Note de DO Menor.
Só assim você consegue passar por duas caracteristicas
marcantes do Blues e outros estilos, a Terça e a Sétima Menor.
Este é um dos princípios da sonoridade Blues.

Ex. Pentatônica 3/2 ( Tom MI menor )
G--------------------------------------7--9-------9--7----------------------------------
D---------------------------5--7--9---------------------9--7--5------------------------
A-------------5--7-------------------------------------------------------7--5------------
E--3--5--7----------------------------------------------------------------------7--5--3-

Ex. Pentatônica 3/2 com Blue Note ( Tom MI  )
G------------------------------------------7--9-----9--7---------------------------------------
D---------------------------5--7--8--9-------------------9--8--7--5-------------------------
A-----------------5--7-------------------------------------------------------7--5---------------
E--3--5--6--7---------------------------------------------------------------------7--6--5--3-
Perceba que a diferença entre os dois exemplos é a nota LA# (#4), que
foi acrescentada na Pentatônica 3/2 com Blue Note.
Agora, respeitando esse exemplo, procure transformar outras tonalidades
de Penta 3/2 em Penta 3/2 com Blue Note.
Você encontrará modelos em outros tons nas postagens anteriores.