VÍDEO AULAS

PARA ASSISTIR AULAS DE: VIOLÃO; GUITARRA; TECLADO E BAIXO, VÁ NOS MARCADORES: DICAS

Contra Baixo: Escala Pentatônica 3/2 ( Solo - Improvisação - SOL Maior, MI Menor, LA Maior, FA# Menor ...)

By Jeffão Peres
Escala Pentatônica 3/2
Consiste em dividir a Penta em duas cordas, três notas em cima
e duas em baixo de forma padrão
A escala Pentatônica 3/2 proporciona uma simetria que
facilita a aplicação de técnicas como: Slide, Hammer-on e
Pull-off, por isso é muito usada, não só no Baixo, mas também
no Violão e Guitarra.
Como na Escala Pentatônica não há semitom, as notas estarão
sempre separadas por tom, isso também facilita a digitação.
No modelo Penta 3/2, a 1° nota de cada grupo orienta a tonalidade
maior, e a última, a menor
Ex.
   Primeiro grupo      Segundo grupo       A 1° nota de cada grupo
G---------------------------------------5--7-----   é a FA, então a tonalidade
D----------------------------3--5--7------------    é FA MAIOR
A-------------3--5-------------------------------   A última é RE, então a tonalidade  
E--1--3--5--------------------------------------   também é RE MENOR 

Perceba que o segundo grupo tem as mesmas notas e na mesma ordem que
o primeiro, apenas está uma oitava acima
Digitação sugerida: Apenas dedos 1 e 3

Outros Tons
   sol maior / mi menor    
G--------------------------------------7--9------9--7--------------------------------------
D---------------------------5--7--9---------------------9--7--5---------------------------
A-------------5--7--------------------------------------------------------7--5--------------
E--3--5--7----------------------------------------------------------------------7--5--3---
   la maior / fa# menor
G---------------------------------------9--11---11--9--------------------------------------
D--------------------------7--9--11----------------------11--9--7-------------------------
A-------------7--9----------------------------------------------------------9--7-------------
E--5--7--9-------------------------------------------------------------------------9--7--5-
   si maior / sol# menor
G---------------------------------------11--13---13--11-------------------------------------
D-------------------------9--11--13-----------------------13--11--9------------------------
A--------------9--11--------------------------------------------------------11--9-------------
E--7--9--11-------------------------------------------------------------------------11--9--7-
    do maior / la menor
G---------------------------------------12-14--14-12---------------------------------------
D-------------------------10-12-14---------------------14-12-10-------------------------
A--------------10-12-----------------------------------------------------12-10-------------
E--8-10-12-----------------------------------------------------------------------12-10-8-
    re maior / si menor
G--------------------------------------14-16---16-14-----------------------------------------
D------------------------12-14-16----------------------16-14-12---------------------------
A--------------12-14-----------------------------------------------------14-12---------------
E-10-12-14-----------------------------------------------------------------------14-12-10-
    mi maior / do# menor
G----------------------------------4--6------6--4-----------------------------------
D-----------------------2--4--6---------------------6--4--2------------------------
A------------2--4---------------------------------------------------4--2-------------
E-0--2--4------------------------------------------------------------------4--2--0--