VÍDEO AULAS

PARA ASSISTIR AULAS DE: VIOLÃO; GUITARRA; TECLADO E BAIXO, VÁ NOS MARCADORES: DICAS

Edição especial: Músicas de Natal 4: Cantam anjos harmonias - Special edition: Christmas song 4: Hark! The herald-angels sing ( Melodia - Solo - Acordes - Chord Melody - 10, 23, 34, 45, 65 - DO, RE, MI ....)

Cantam anjos harmonias - Hark! The herald-angels sing
By Jeffão Peres

Números para Violão e Guitarra
53 - 43 - 43 / 42 - 43 - 32 - 32 - 30 / 21 - 21 - 21 / 33 - 32 - 30 - 32 /
53 - 43 - 43 / 42 - 43 - 32 - 32 - 30 / 21 - 30 - 30 / 43 - 42 - 40 - 53 /
21 - 21 - 21 - 43 - 33 - 32 - 32 - 30 / 21 - 21 - 21 - 43 - 33 - 32 - 32 - 30 /
23 - 23 - 23 - 21 - 33 -32 - 33 / 30 - 32 - 33 - 21 / 43 - 43 - 30 - 32 /
23 - 23 - 23 - 21 - 33 - 32 - 33 / 30 - 32 - 33 - 21 / 43 - 43 - 30 - 43 /

Teclatura: Chord melody
  F                                            C                F              Bb 
DO - FA - FA / MI - FA - LA - LA - SOL / DO - DO - DO 
         C                F                                   Dm           G
SIb - LA - SOL - LA / DO - FA - FA / MI - FA - LA - LA - SOL
 C                  G                             C
DO - SOL - SOL / FA - MI - RE - DO
     F                                C      F      C
II: DO - DO - DO - FA - SIb - LA - LA - SOL :II
 Bb                      F     Gm   D   Gm     C                        F
RE - RE - RE - DO - SIb - LA - SIb / SOL - LA - SIb - DO
                 C        F    Bb                     F     Gm    D   Gm
FA - FA - SOL - LA / RE - RE - RE - DO - SIb - LA  SIb
  C                        F                      C       F
SOL - LA - SIb - DO / FA - FA - SOL - FA

Tablatura: Chord Melody

E------------------------------------------------------------------------
B---------------------------------------1---1---1---------------------
G-------------------------2---2----0--2--------3---3---2---0---2--
D------3---3---2---3--------2-------3--------3--------2--------3--
A--3-------3-----------------3-----------------1--------3--------3--
E-----------1-------------------------1----------------------------1---

E--------------------------------------------------------------------------
B---------------------------------------1--------------------------------
G------------------------2---2----0---0----0---0----------------------
D------3---3---2---3-------0---------2--------0---3---2---0--------
A--3-------5---------------------------3----------------------------3--
E-----------5-----------------3------------------3------------------3--

E----------------------------------------------------------------------------
B--1---1---1-------------------------1---1---1-------------------------
G--2----------------3---2---2---0---2-----------------3----2---2---0-
D--3-----------3---2---3---2--------3------------3---2----2---2------
A--------------------3---3---3---------------------------3---3---3-------
E--1---------------------1------------1----------------------1------------

E------------------------------------------------------------------------
B--3---3---3---1--------------------------------1--------------------
G--3--------3---2---3---2---3---0---2---3---2-------------0---2-
D--3--------3---0---3---4---0---2-------------3---3---3---2---3-
A--1--------1---0--------5---1---3---------------------------3---3-
E----------------------3-------3---0-------------1-----------------1-

E-------------------------------------------------------------------------
B--3---3---3---1--------------------------------1---------------------
G--3--------3---2---3---2---3---0---2---3---2-------------0-----
D--3--------3---0---3---4---0---2-------------3---3---3---2---3-
A--1--------1---0--------5---1---3---------------------------3---3-
E----------------------3-------3---0-------------1-----------------1-