VÍDEO AULAS

PARA ASSISTIR AULAS DE: VIOLÃO; GUITARRA; TECLADO E BAIXO, VÁ NOS MARCADORES: DICAS

Edição especial: Músicas de Natal 5: Proclamaram anjos mil o primeiro Natal - Special edition: Christmas song 5: The first Nowell ( Melodia - Solo - Acordes - Chord Melody - 10, 23, 45, 65 - DO, RE, MI ...)

Proclamaram anjos mil o primeiro Natal - The first Nowell
By Jeffão Peres

Números para Violão e Guitarra
12 - 10 - 23 / 10 - 12 - 13 - 15 / 17 - 19 - 110 - 19 - 17 - 210 /
17 - 19 - 110 - 19 - 17 - 210 - 17 - 19 - 110 - 210 - 28 - 27 /
27 - 25 - 37 / 25 - 27 - 28 - 15 / 17 - 19 - 110 - 19 - 17 - 210 /
17 - 19 - 110 - 19 - 17 - 210 - 17 - 19 - 110 - 210 - 28 - 27 /
12 - 10 - 23 / 10 - 12 - 13 - 15 / 110 - 19 - 17 / 17 - 15 /
110 - 19 - 17 - 210 - 17 - 19 - 110 - 210 - 28 - 27 /

Teclatura: Chord Melody
                  D           Bm               A    G                D   
FA# - MI - RE / MI - FA# - SOL - LA / SI - DO# - RE -
            G   D     G               D                G    D 
DO# - SI - LA / SI - DO# - RE - DO# - SI - LA - SI -
  A       D      A                 D  
DO# - RE - LA - SOL - FA#
                     D            Bm             F#m  D                G
II: FA# - MI - RE / MI - FA# - SOL - LA / RE - DO# - SI
Em  D   Bm   F#m    G    D            A       Bm    A                 D 
SI - LA / RE - DO# - SI - LA - SI - DO# - RE - LA - SOL - FA# :II

Tablatura: Chord Melody

E--2---0--------0---2----3---5---7---9---10---9----7---5---7---9---10--
B------------3--------3--------2---8---------7---------8---7---8---------7--
G------------2--------4--------2---7---------7---------7---7---7---------7--
D------------0--------------------------------------------5---0------------------
A----------------------2--------0--------------9-----------------------------9--
E-------------------------------------7--------------------------------------------

E---9---7---5---7----9----10---5------------
B--------8---7---8---10----7----5---8---7--      Volta     
G--------7---7---7----9-----7----6---6---7--       ao
D--------5---0---------------------4---7---7---    início
A------------------------0---------------0---5--- e repete
E------------------0-----------7-----------------

E---2---0-------0----2----3--5---10---9----7----7---5---10---9---7---5---7--
B------------3--------3--------2----7---------8----8---7----7---------8---7-------
G------------2--------4--------2----7---------7----7---7----7---------7---7-------
D------------0------------------------0---------5--------0---------------5---0-------
A----------------------2-----------------------------------------------------------------
E--------------------------------2--------------------0---------7----------------------

E---9---10-----------------
B---8----7---10---8---7--
G---9----7---------6---7--
D---------0---------7---7--
A---0---------------0---5--
E----------------------------