VÍDEO AULAS

PARA ASSISTIR AULAS DE: VIOLÃO; GUITARRA; TECLADO E BAIXO, VÁ NOS MARCADORES: DICAS

Edição especial: Músicas de Natal 6: Surgem anjos proclamando glória a Deus nas alturas - Special edition: Christmas song 6: Angels from the realms of glory ( Melodia - Solo - Acordes - Chord Melody - 10, 23, 45, 65 - DO, RE, MI ...)

Surgem anjos proclamando glória a Deus nas alturas
Angels from the realms of glory
By Jeffão Peres

Números para Violão e Guitarra
20 - 20 - 20 - 20 - 23 - 23 / 21 - 20 - 30
20 - 20 - 20 - 20 - 23 - 23 - 21 - 20 :II
II: 23 / 10 - 23 - 21 - 20 - 21 / 23 - 21 - 20 - 32 - 20 /
21 - 20 - 32 - 30 - 32 / 40 /
30 - 32 - 20 - 21 - 20 / 32 :II 30

Teclatura: Chord Melody
 G                                 D             G 
SI - SI - SI - SI - RE - RE / DO - SI - SOL
             Em                 D
SI - SI - SI - SI - RE - RE - DO - SI :II
     G    E7                           Am    D                           G 
II: RE / MI - RE - DO - SI - DO / RE - DO - SI - LA - SI
 C            A7               D
DO - SI - LA - SOL - LA / RE
 Em     D     G   Am    G    D       G
SOL - LA - SI - DO - SI / LA :II SOL

Tablatura: Chord Melody

E-------------------------------------------------------------------------------- R
B---0---0---0---0---3----3---1--0--------0---0---0---0---3----3---1--0- E
G---0----------------------2-------0---0---0---0---0-------------2-------0- P
D---0----------------------0-------0--------0---0---0-------------0-------0- E
A-------------------------------------------------------------------------------  T
E---3----------------------2-------3--------3---2---0----------------------3- E

    Refrão
E--------------------------------------------------------------------------
B---3---5---3-------------1---3---1---0-------0---1---0------------
G---0---4--------5---4---2---2------------2---0---0--------2---0--
D---0---2-----------------2---0-----------------0---2--------2-------
A---------------------------0-----------------------------------4-------
E---3---4-----------------------------------------3---0----------------

E----------------------------------------                   ---------
B---------------------0---1---0------     Volta        --------
G--2--------0---2---0---2---0---2--       no          ---0----
D--4---0---2---0---0---2---0---4--    começo    ---0----
A--5----------------------0---2---5--        do          ---------
E------------0---2---3----------------     refrão       ---3----