VÍDEO AULAS

PARA ASSISTIR AULAS DE: VIOLÃO; GUITARRA; TECLADO E BAIXO, VÁ NOS MARCADORES: DICAS

Tablatura: Chord Melody 54 : Nos galhos secos ( Acorde - Melodia - Solo - Violão e Guitarra)

Nos galhos secos
By Jeffão Peres

E-------0---7---5---3---2---0-------3---3---3---3----3---3---5---3---2--
B-------0---------------- 0-------3---1------------------1-----------------3--
G-------0----------------0------------0------------------0-----------------2--
D-------------------------0--------------------------------------------------0--
A---------------------------------------3------------------3--------------------
E-------0------------------------------------------------------------------------

E--2---2---2---0------0---0---0--------0---7---5---3----2---0--------3--5-
B-----------3------3---0------------------0------------------0-------3---1-----
G-----------2----------0------------------0------------------0------------0----
D-----------0-------------------------------------------------0------------------
A----------------------------------------------------------------------------3----
E-----------------------0------------------0--------------------------------------

E--3---2---0-------7---7----10------------------------------------------------5--
B-------3-------3---8--------12---13---12---10---8---8---8---10---8----7--
G-------2-----------7---------10---------------------9---9--------------------7--
D-------0-----------5---------------------------------10-10-------------------0--
A-------------------------------10---------------------------------------------------
E-------------------------------------------------------8---8-----------------------

E----------0--0---0--0---0---7---5---3----2---0---0---0---0---0---0---2--2-
B----------0--------------------0-------------0---1---1----------------------3-----
G-7---7--0--------------------0-------------0---0---0----------------------2----
D----------------------------------------------0-------------------------------0----
A---------------------------------------------------3---3----------------------------
E----------0--------------------0---------------------------------------------------

E---2---2----2--0------7---7---7---7---10--------------8--------8---7---5--
B-------------3-----3---8--------8-------12---13--12---8--------8--------7--
G-------------2---------7--------7-------10---------------9---9---9--------7--
D-------------0---------5--------5------------------------10------10--------0--
A------------------------------------------10--------------------------------------
E-----------------------------------------------------------------------------------

E---5---5----8---7--------7-------
B-------------7------10---8-------
G-------------8------------7---7--
D-------------7---------------------
A------------------------------------
E---------------------------0-------

Mais temas em Tablatura Chord Melody que você pode conferir em 
outras postagens:
Pomp and circumstance - Love me tender - Eu navegarei - Wave -
Pour Elise - Mais perto quero estar - Buscai primeiro - Not of this world -
Escorregando - Minueto - Nona Sinfonía - Jesus - Jazz blues 1 - Samba
de uma nota só - A Ele a glória ( porque Dele e por Ele ) - Vem! esta é
a hora - Oceano - O Barquinho - Sampa - Te agradeço - Meu bem 
querer - Garota de Ipanema - Eu sei que vou te amar - Carinhoso -
Coração de estudante - Este é o meu respirar - Assim como a corça -
A pantera cor de rosa - Em espírito e em verdade - Ele é exaltado -
Gente humilde - Poderoso Deus - Aclame ao Senhor - Santo! Santo!
Santo! cc9 - Yesterday - Over the rainbow - Os flintstones - Love of my
life - Quão preciosa são as horas - Pela luz dos olhos teus - My way -
Dei graças - Tristesse - Olha pra mim - Against all odds - True colors -
Heaven - Sonho de amor - Quanto amor - I want to know what love is -
Sou feliz com Jesus - Tears in heaven - Nos galhos secos - You'll be
in my heart