VÍDEO AULAS

PARA ASSISTIR AULAS DE: VIOLÃO; GUITARRA; TECLADO E BAIXO, VÁ NOS MARCADORES: DICAS

Acompanhamentos para Violão e Guitarra 2 ( Country 1 )

By Jeffão Peres


  Country 1
                     D                                               G
E------------------2-------2--------2--------2----------3-------3-----
B------------------3-------3--------3--------3----------0-------0-----
G------------------2-------2--------2--------2----------0-------0-----
D-------------0-----------------0-----------------------------0---------
A--0--2--4----------0------------------0-------------------------------
E-------------------------------------------------------3--------------3-
                    D                                               A7
E------------------2-------2--------2--------2----------0------0---------
B------------------3-------3--------3--------3----------2------2---------
G------------------2-------2--------2--------2----------0------0---------
D-------------0-----------------0-------------------------2------2---------
A--0--2--4-----------0------------------0----------0-----------------0--
E---------------------------------------------------------------0------------
                                                Db    D
E-------------------------------------1--s--2--
B---1-s-2---------------------------2--s--3--
G------------2-----------------------1--s--2--
D----------------2---3-s-4---0---------------
A------------------------------------------------
E------------------------------------------------


Obs. s = Slide : Toca o 1° número e arrasta com o mesmo dedo até
o próximo indicado