VÍDEO AULAS

PARA ASSISTIR AULAS DE: VIOLÃO; GUITARRA; TECLADO E BAIXO, VÁ NOS MARCADORES: DICAS

Cavaquinho : Diatônica 1 ( Escala de DO Maior e LA Menor )

By Jeffão Peres


Escala de DO Maior e LA Menor
Movimento descendente.
Para o movimento ascendente basta subir com
a mesma digitação
   1° Modelo
D--------------------------------0---2---3--
B------------------------0---1---------------
G---------------0---2------------------------
D--0---2---3--------------------------------
   2° Modelo
D------------------------------------------5---7---9-
B-----------------------------3---5---6--------------
G---------------2--4---5-----------------------------
D--2---3---5-----------------------------------------
  3° Modelo
D--------------------------------------------7---9---10-
B------------------------------5---6---8-----------------
G---------------4---5---7--------------------------------
D--3---5---7---------------------------------------------
   4° Modelo
D--------------------------------------------9---10---12--
B-----------------------------6---8---10-------------------
G---------------5---7---9----------------------------------
D--5---7---9-----------------------------------------------


Você pode conferir mais Tons em outras Postagens