VÍDEO AULAS

PARA ASSISTIR AULAS DE: VIOLÃO; GUITARRA; TECLADO E BAIXO, VÁ NOS MARCADORES: DICAS

Cavaquinho : Diatônica 4 ( Escala de FA Maior e RE Menor )


By Jeffão Peres

Escala de FA Maior e RE Menor
Movimento descendente.
Para o movimento ascendente basta subir com
a mesma digitação
   1° Modelo
D---------------------------------0---2---3--
B-----------------------------1---------------
G---------------0---2---3-------------------
D--0---2---3--------------------------------
   2° Modelo
D------------------------------------------5---7---8-
B-----------------------------3---5---6--------------
G---------------2---3---5----------------------------
D--2---3---5-----------------------------------------
  3° Modelo
D--------------------------------------------7---8---10-
B------------------------------5---6---8-----------------
G---------------3---5---7--------------------------------
D--3---5---7---------------------------------------------
   4° Modelo
D--------------------------------------------8---10---12--
B-----------------------------6---8---10-------------------
G---------------5---7---9----------------------------------
D--5---7---8-----------------------------------------------

Você pode conferir mais Tons em outras Postagens