VÍDEO AULAS

PARA ASSISTIR AULAS DE: VIOLÃO; GUITARRA; TECLADO E BAIXO, VÁ NOS MARCADORES: DICAS

Cavaquinho : Diatônica 7 (Escala de SI Maior e SOL# Menor)

By Jeffão Peres

Escala de SI Maior e SOL# Menor
Movimento descendente.
Para o movimento ascendente basta subir com
a mesma digitação
   1° Modelo
D--------------------------------1---2---4--
B------------------------0---2---------------
G---------------1---3------------------------
D--1---2---4--------------------------------
   2° Modelo
D------------------------------------------6---8---9-
B-----------------------------4---5---7--------------
G---------------3---4---6-----------------------------
D--2---4---6-----------------------------------------
  3° Modelo
D--------------------------------------------8---9---11-
B------------------------------5---7---9-----------------
G---------------4---6---8--------------------------------
D--4---6---8---------------------------------------------
   4° Modelo
D--------------------------------------------9---11---13--
B-----------------------------7---9---11-------------------
G---------------6---8---9----------------------------------
D--6---8---9-----------------------------------------------

Você pode conferir mais Tons em outras Postagens