VÍDEO AULAS

PARA ASSISTIR AULAS DE: VIOLÃO; GUITARRA; TECLADO E BAIXO, VÁ NOS MARCADORES: DICAS

Contra Baixo: Acordes 3 : Tríade Fechada 1 : I, III, V ( C, D, Em, G, Am, Bm ...)

By Jeffão Peres


O exemplos a seguir podem ser aplicados em várias 
situações e diversas formas:
* Tocadas simultaneamente
* Arpejando descendente
* Arpejando ascendente 
* Arpejando descendente e ascendente
Como o Baixo é um instrumento grave por natureza, deve-se
ter bom senso e referências de outros baixistas para uma melhor 
aplicação dos acordes.
Obs. Tônica - Terça Maior - Terça Menor - Quinta

      C           Dm         Em         F              G             Am
G---0----------2----------4----------5-----------7------------9--
D---2----------3----------5----------7-----------9-----------10-
A---3----------5----------7----------8----------10----------12-
E--------------------------------------------------------------------
      D           Em        F#m         G             A             Bm
G---2----------4----------6----------7-----------9-----------11-
D---4----------5----------7----------9----------11----------12-
A---5----------7----------9---------10----------12----------14-
E--------------------------------------------------------------------
       E          F#m      G#m        A              B            C#m
G---4----------6----------8----------9----------11-----------1--
D---6----------7----------9---------11---------13-----------2-
A---7----------9---------11--------12---------14------------4-
E--------------------------------------------------------------------
       F           Gm         Am        Bb            C             Dm
G---5----------7----------9---------10----------0------------2--
D---7----------8---------10--------12----------2------------3-
A---8---------10--------12--------13-----------3------------5-
E--------------------------------------------------------------------
      G           Am         Bm          C             D             Em
G---7----------9---------11--------12----------14----------16-
D---9---------10--------12--------14----------16----------17-
A--10--------12--------14--------15----------17----------19-
E--------------------------------------------------------------------
      A           Bm       C#m         D              E           F#m
G---9---------11--------13--------14----------16----------18-
D--11--------12--------14--------16----------18----------19-
A--12--------14--------16--------17----------19-----------21-
E--------------------------------------------------------------------
       B         C#m      D#m         E             F#           G#m
G--11--------13--------15--------16----------18-----------8-
D--13--------14--------16--------18----------20-----------9-
A--14--------16--------18--------19----------21----------11-
E--------------------------------------------------------------------

Observe que só existem dois padrões: Maior e Menor 

Você pode conferir mais exemplos de Acordes para Baixo
em outras Postagens