VÍDEO AULAS

PARA ASSISTIR AULAS DE: VIOLÃO; GUITARRA; TECLADO E BAIXO, VÁ NOS MARCADORES: DICAS

Contra Baixo: Diatônica 3 - Escala Maior e Menor Natural ( MI Maior e DO# Menor )


By Jeffão Peres

Escala Diatônica: MI Maior e DO# Menor Natural
Movimento descendente.
Para o movimento ascendente, basta subir com
a mesma digitação
  6° Modelo
G-----------------------------------2--4--6--
D------------------------2--4--6-------------
A-------------2--4--6------------------------
E--2--4--5-----------------------------------
  7° Modelo
G-----------------------------------4--6--8-
D------------------------4--6--7------------
A-------------4--6--7-----------------------
E--4--5--7----------------------------------
   1° Modelo
G-----------------------------------6--8--9-
D------------------------6--7--9------------
A-------------6--7--9-----------------------
E--5--7--9----------------------------------
   2° Modelo
G-----------------------------------------8--9--11-
D----------------------------7--9--11--------------
A---------------7--9--11---------------------------
E--7--9--11----------------------------------------
   3° Modelo
G-----------------------------------------------9--11--13-
D--------------------------------9--11--13----------------
A-----------------9--11--12-------------------------------
E--9--11--12----------------------------------------------
   4° Modelo
G---------------------------------------------------11--13--14-
D-----------------------------------11--13--14-----------------
A-------------------11--12--14---------------------------------
E--11--12--14--------------------------------------------------
   5° Modelo
G--------------------------------------------------13--14--16-
D----------------------------------13--14--16-----------------
A------------------12--14--16---------------------------------
E--12--14--16-------------------------------------------------

Você pode encontrar mais Tons em outras Postagens