VÍDEO AULAS

PARA ASSISTIR AULAS DE: VIOLÃO; GUITARRA; TECLADO E BAIXO, VÁ NOS MARCADORES: DICAS

Contra Baixo: Diatônica 4 - Escala Maior e Menor Natural ( FA Maior e RE Menor )


By Jeffão Peres

Escala Diatônica: FA Maior e RE Menor Natural 
Movimento descendente.
Para o movimento ascendente, basta subir com
a mesma digitação
  5° Modelo
G-----------------------------------2--3--5-
D------------------------2--3--5------------
A-------------1--3--5-----------------------
E--1--3--5----------------------------------
  6° Modelo
G-----------------------------------3--5--7--
D------------------------3--5--7-------------
A-------------3--5--7------------------------
E--3--5--6-----------------------------------
   7° Modelo
G-----------------------------------5--7--9-
D------------------------5--7--8------------
A-------------5--7--8-----------------------
E--5--6--8----------------------------------
   1° Modelo
G-----------------------------------------7--9--10-
D----------------------------7--8--10-------------
A---------------7--8--10---------------------------
E--6--8--10----------------------------------------
   2° Modelo
G-----------------------------------------------9--10--12--
D--------------------------------8--10--12-----------------
A-----------------8--10--12--------------------------------
E--8--10--12-----------------------------------------------
   3° Modelo
G---------------------------------------------------10--12--14-
D-----------------------------------10--12--14-----------------
A-------------------10--12--13---------------------------------
E--10--12--13--------------------------------------------------
   4° Modelo
G--------------------------------------------------12--14--15--
D----------------------------------12--14--15------------------
A------------------12--13--15----------------------------------
E--12--13--15-------------------------------------------------

Você pode encontrar mais Tons em outras Postagens