VÍDEO AULAS

PARA ASSISTIR AULAS DE: VIOLÃO; GUITARRA; TECLADO E BAIXO, VÁ NOS MARCADORES: DICAS

Contra Baixo: Diatônica 5 - Escala Maior e Menor Natural ( SOL Maior e MI Menor )


By Jeffão Peres

Escala Diatônica: SOL Maior e MI Menor Natural
Movimento descendente.
Para o movimento ascendente, basta subir com
a mesma digitação
  4° Modelo
G-----------------------------------2--4--5-
D------------------------2--4--5------------
A-------------2--3--5-----------------------
E--2--3--5----------------------------------
  5° Modelo
G-----------------------------------4--5--7-
D------------------------4--5--7------------
A-------------3--5--7-----------------------
E--3--5--7----------------------------------
   6° Modelo
G-----------------------------------5--7--9-
D------------------------5--7--9------------
A-------------5--7--9-----------------------
E--5--7--8----------------------------------
   7° Modelo
G-----------------------------------------7--9--11-
D----------------------------7--9--10--------------
A---------------7--9--10---------------------------
E--7--8--10----------------------------------------
   1° Modelo
G-----------------------------------------------9--11--12--
D--------------------------------9--10--12-----------------
A-----------------9--10--12--------------------------------
E--8--10--12-----------------------------------------------
   2° Modelo
G---------------------------------------------------11--12--14-
D-----------------------------------10--12--14-----------------
A-------------------10--12--14---------------------------------
E--10--12--14--------------------------------------------------
   3° Modelo
G--------------------------------------------------12--14--16-
D----------------------------------12--14--16-----------------
A------------------12--14--15---------------------------------
E--12--14--15-------------------------------------------------

Você pode encontrar mais Tons em outras Postagens