VÍDEO AULAS

PARA ASSISTIR AULAS DE: VIOLÃO; GUITARRA; TECLADO E BAIXO, VÁ NOS MARCADORES: DICAS

Contra Baixo: Escala Pentatônica 1 ( DO Maior e La Menor )

By Jeffão Peres


Escala Pentatônica de DO Maior e LA Menor
Movimento Descendente.
Para o movimento ascendente basta subir com a mesma digitação
   1° Modelo
G-----------------------------2---5--
D--------------------2---5-----------
A-----------3---5--------------------
E--3---5-----------------------------
   2° Modelo
G--------------------------------5---7-
D----------------------5---7-----------
A------------5---7---------------------
E--5---8-------------------------------
   3° Modelo
G-----------------------------------7---9--
D------------------------7---10-----------
A-------------7---10----------------------
E--8---10---------------------------------
   4° Modelo
G-----------------------------------------9---12--
D----------------------------10---12-------------
A---------------10---12--------------------------
E--10---12---------------------------------------
   5° Modelo
G-----------------------------------------12---14-
D----------------------------12---14--------------
A---------------12---15---------------------------
E--12---15----------------------------------------


Você pode conferir mais Tons em outras Postagens