VÍDEO AULAS

PARA ASSISTIR AULAS DE: VIOLÃO; GUITARRA; TECLADO E BAIXO, VÁ NOS MARCADORES: DICAS

Contra Baixo: Escala Pentatônica 2 ( RE Maior e SI Menor )

By Jeffão Peres

Escala Pentatônica de RE Maior e SI Menor
Movimento Descendente.
Para o movimento ascendente basta subir com a mesma digitação
   5° Modelo
G-----------------------------2---4--
D--------------------2---4-----------
A-----------2---5--------------------
E--2---5-----------------------------
   1° Modelo
G--------------------------------4---7-
D----------------------4---7-----------
A------------5---7---------------------
E--5---7-------------------------------
   2° Modelo
G-----------------------------------7---9--
D------------------------7---9-------------
A-------------7---9------------------------
E--7---10---------------------------------
   3° Modelo
G-----------------------------------------9---11--
D----------------------------9---12---------------
A---------------9---12----------------------------
E--10---12---------------------------------------
   4° Modelo
G-----------------------------------------11---14-
D----------------------------12---14--------------
A---------------12---14---------------------------
E--12---14----------------------------------------

Você pode conferir mais Tons em outras Postagens