VÍDEO AULAS

PARA ASSISTIR AULAS DE: VIOLÃO; GUITARRA; TECLADO E BAIXO, VÁ NOS MARCADORES: DICAS

Contra Baixo: Escala Pentatônica 4 ( MIb Maior e DO Menor )

By Jeffão Peres

Escala Pentatônica de MIb Maior e DO Menor
Movimento Descendente.
Para o movimento ascendente basta subir com a mesma digitação
   4° Modelo
G-----------------------------0---3--
D--------------------1---3-----------
A-----------1---3--------------------
E--1---3-----------------------------
   5° Modelo
G--------------------------------3---5-
D----------------------3---5-----------
A------------3---6---------------------
E--3---6-------------------------------
   1° Modelo
G-----------------------------------5---8--
D------------------------5---8-------------
A-------------6---8------------------------
E--6---8-----------------------------------
   2° Modelo
G-----------------------------------------8---10--
D----------------------------8---10---------------
A---------------8---10----------------------------
E--8---11-----------------------------------------
   3° Modelo
G-----------------------------------------10---12-
D----------------------------10---13--------------
A---------------10---13---------------------------
E--11---13----------------------------------------

Você pode conferir mais Tons em outras Postagens