VÍDEO AULAS

PARA ASSISTIR AULAS DE: VIOLÃO; GUITARRA; TECLADO E BAIXO, VÁ NOS MARCADORES: DICAS

Contra Baixo: Escala Pentatônica 5 ( FA Maior e RE Menor )

By Jeffão Peres

Escala Pentatônica de FA Maior e RE Menor
Movimento Descendente.
Para o movimento ascendente basta subir com a mesma digitação
   3° Modelo
G-----------------------------0---2--
D--------------------0---3-----------
A-----------0---3--------------------
E--1---3-----------------------------
   4° Modelo
G--------------------------------2---5-
D----------------------3---5-----------
A------------3---5---------------------
E--3---5-------------------------------
   5° Modelo
G-----------------------------------5---7--
D------------------------5---7-------------
A-------------5---8------------------------
E--5---8-----------------------------------
   1° Modelo
G-----------------------------------------7---10--
D----------------------------7---10---------------
A---------------8---10----------------------------
E--8---10-----------------------------------------
   2° Modelo
G-----------------------------------------10---12-
D----------------------------10---12--------------
A---------------10---12---------------------------
E--10---13----------------------------------------

Você pode conferir mais Tons em outras Postagens