VÍDEO AULAS

PARA ASSISTIR AULAS DE: VIOLÃO; GUITARRA; TECLADO E BAIXO, VÁ NOS MARCADORES: DICAS

Contra Baixo: Escala Pentatônica 8 ( SI Maior e SOL# Menor )

By Jeffão Peres

Escala Pentatônica de SI Maior e SOL# Menor
Movimento Descendente.
Para o movimento ascendente basta subir com a mesma digitação
   1° Modelo
G-----------------------------1---4--
D--------------------1---4-----------
A-----------2---4--------------------
E--2---4-----------------------------
   2° Modelo
G--------------------------------4---6-
D----------------------4---6-----------
A------------4---6---------------------
E--4---7-------------------------------
   3° Modelo
G-----------------------------------6---8--
D------------------------6---9-------------
A-------------6---9------------------------
E--7---9-----------------------------------
   4° Modelo
G-----------------------------------------8---11--
D----------------------------9---11---------------
A---------------9---11----------------------------
E--9---11-----------------------------------------
   5° Modelo
G-----------------------------------------11---13-
D----------------------------11---13--------------
A---------------11---14---------------------------
E--11---14----------------------------------------

Você pode conferir mais Tons em outras Postagens