VÍDEO AULAS

PARA ASSISTIR AULAS DE: VIOLÃO; GUITARRA; TECLADO E BAIXO, VÁ NOS MARCADORES: DICAS

Contra Baixo: Escala Pentatônica 9 ( SIb Maior e SOL Menor )


By Jeffão Peres

Escala Pentatônica de SIb Maior e SOL Menor
Movimento Descendente.
Para o movimento ascendente basta subir com a mesma digitação
   1° Modelo
G-----------------------------0---3--
D--------------------0---3-----------
A-----------1---3--------------------
E--1---3-----------------------------
   2° Modelo
G--------------------------------3---5-
D----------------------3---5-----------
A------------3---5---------------------
E--3---6-------------------------------
   3° Modelo
G-----------------------------------5---7--
D------------------------5---8-------------
A-------------5---8------------------------
E--6---8-----------------------------------
   4° Modelo
G-----------------------------------------7---10--
D----------------------------8---10---------------
A---------------8---10----------------------------
E--8---10-----------------------------------------
   5° Modelo
G-----------------------------------------10---12-
D----------------------------10---12--------------
A---------------10---13---------------------------
E--10---13----------------------------------------

Você pode conferir mais Tons em outras Postagens