VÍDEO AULAS

PARA ASSISTIR AULAS DE: VIOLÃO; GUITARRA; TECLADO E BAIXO, VÁ NOS MARCADORES: DICAS

Contra Baixo: Escala Pentatônica Blues 1 - Blue Note ( LA )


By Jeffão Peres

Escala Pentatônica Blues de LA 
Movimento descendente.
Para o movimento ascendente, basta voltar subindo com as 
mesmas notas
Blue Notes
   1° Modelo
G----------------------------2--5--
D---------------------2--5---------
A----------3--5--6----------------
E--3--5----------------------------
  2° Modelo
G----------------------------5--7--8-
D---------------------5--7------------
A----------5--6--7-------------------
E--5--8-------------------------------
  3° Modelo
G------------------------------------7--8--9-
D---------------------------7--10------------
A------------------7--10---------------------
E---8--10--11------------------------------
  4° Modelo
G--------------------------------------------9--12-
D----------------------------10--12--13---------
A------------------10--12------------------------
E--10--11--12----------------------------------
  5° Modelo
G----------------------------------------12--14--
D------------------------12--13--14------------
A-------------12--15-----------------------------
E--12--15----------------------------------------

Você também pode conferir mais Tons em outras Postagens.