VÍDEO AULAS

PARA ASSISTIR AULAS DE: VIOLÃO; GUITARRA; TECLADO E BAIXO, VÁ NOS MARCADORES: DICAS

Contra Baixo: Escala Pentatônica Blues 2 - Blue Note ( SI )


By Jeffão Peres

Escala Pentatônica Blues SI
Movimento descendente.
Para o movimento ascendente, basta voltar subindo com as 
mesmas notas
Blue Notes
   5° Modelo
G-----------------------------2--4-
D------------------2--3--4--------
A----------2--5--------------------
E--2--5----------------------------
  1° Modelo
G----------------------------4--7-
D---------------------4--7--------
A----------5--7--8---------------
E--5--7--------------------------
  2° Modelo
G-------------------------------7--9--10-
D------------------------7--9-------------
A-------------7--8--9-------------------
E---7--10-------------------------------
  3° Modelo
G------------------------------------9--10--11-
D--------------------------9--12----------------
A------------------9--12------------------------
E--10--12--13--------------------------------
  4° Modelo
G--------------------------------------------11--14-
D----------------------------12--14--15-----------
A------------------12--14---------------------------
E--12--13--14-------------------------------------

Você também pode conferir mais Tons em outras Postagens.