VÍDEO AULAS

PARA ASSISTIR AULAS DE: VIOLÃO; GUITARRA; TECLADO E BAIXO, VÁ NOS MARCADORES: DICAS

Contra Baixo: Escala Pentatônica Blues 7 - Blue Note ( SOL )

By Jeffão Peres


Escala Pentatônica Blues de SOL
Movimento descendente.
Para o movimento ascendente, basta voltar 
subindo com as mesmas notas

Blue Notes

   1° Modelo
G----------------------------0--3-
D---------------------0--3--------
A----------1--3--4---------------
E--1--3--------------------------

  2° Modelo
G----------------------------3--5--6-
D---------------------3--5-----------
A----------3--4--5------------------
E--3--6------------------------------

  3° Modelo
G-----------------------------5--6--7-
D---------------------5--8------------
A--------------5--8-------------------
E---6--8--9--------------------------

  4° Modelo
G--------------------------------------7--10-
D------------------------8--10--11---------
A--------------8--10-------------------------
E--8--9--10---------------------------------

  5° Modelo
G---------------------------------------10--12-
D------------------------10--11--12----------
A-------------10--13--------------------------
E--10--13-------------------------------------

Você também pode conferir mais Tons em outras Postagens.