VÍDEO AULAS

PARA ASSISTIR AULAS DE: VIOLÃO; GUITARRA; TECLADO E BAIXO, VÁ NOS MARCADORES: DICAS

Contra Baixo: Escala Pentatônica Maior / Menor

By Jeffão Peres


Como já falamos em postagens anteriores sobre
teoria musical, toda escala é ao mesmo tempo
Maior de uma tonalidade e Menor de outra ( Relativas)
O importante na digitação é saber onde está a nota
de Orientação Tonal
Vamos usar um modelo de digitação, e com ele você pode
improvisar em qualquer Tom e em qualquer Tonalidade


Escala Pentatônica Maior / Menor
   FA Menor / LAb Maior
G-------------------------1--3----3--1-------------------------
D------------------1--3-------------------3--1-----------------
A----------1--3-----------------------------------3--1---------
E--1--4--------------------------------------------------4--1--
   SOL Menor / SIb Maior
G-------------------------3--5----5--3--------------------------
D-----------------3--5--------------------5--3------------------
A----------3--5-----------------------------------5--3----------
E--3--6---------------------------------------------------6--3--
    LA Menor / DO Maior 
G-------------------------5--7----7--5--------------------------
D-----------------5--7--------------------7--5------------------
A----------5--7-----------------------------------7--5----------
E--5--8---------------------------------------------------8--5--
    SI Menor / RE Maior
G--------------------------7--9----9--7---------------------------
D------------------7--9--------------------9--7-------------------
A-----------7--9-----------------------------------9--7-----------
E--7--10--------------------------------------------------10--7--
    DO Menor / MIb Maior
G-----------------------------8--10---10--8------------------------------
D--------------------8--10---------------------10--8---------------------
A-----------8--10----------------------------------------10--8-----------
E--8--11-----------------------------------------------------------11--8-
    RE Menor / FA Maior
G-----------------------------------10--12---12--10--------------------------------
D------------------------10--12-------------------------12--10---------------------
A-------------10--12-----------------------------------------------12--10-----------
E--10--13---------------------------------------------------------------------13--10-
    MI Menor / SOL Maior
G-------------------------0--2---2--0-------------------------
D-----------------0--2-------------------2--0-----------------
A----------0--2----------------------------------2--0---------
E--0--3--------------------------------------------------3--0-


Perceba que quem Orienta a Tonalidade é sempre a e nota.  


Para se chegar em algum Tom que não está aqui, basta aumentar ou
diminuir uma casa
Exemplo. DO# Menor / MI Maior - Uma casa à frente de DO Menor / MIb Maior