VÍDEO AULAS

PARA ASSISTIR AULAS DE: VIOLÃO; GUITARRA; TECLADO E BAIXO, VÁ NOS MARCADORES: DICAS

Contra Baixo: Tríades de FA Maior e FA Menor


By Jeffão Peres

Obs: Tônica  III grau  V Grau

FA Maior
G----------------------------2--5-----------5-----------5--------------
D-------------------------3-----------3--7-----------7---------7--10--
A----0--3-----------3-----------------------------8---------8----------
E--1----------1--5------------------------------------------------------

G---------------------------------------------------------------14--17--
D---------10------------10---------------------------------15-----------
A--8--12-----------12-------------12--15------------15----------------
E---------------13-------------13------------13--17--------------------

FA Menor
G----------------1--5----------5----------5-----------------------------
D-------------3----------3--6----------6-----------6--10-----------10-
A--------3---------------------------8----------8------------8--11----
E--1--4-----------------------------------------------------------------

G-----------------------------------------------------13--17------------17-
D----------10------------------------------------15-------------15--18----
A-----11------------11--15--------------15--------------------------------
E--13------------13-------------13--16------------------------------------

Você pode conferir mais tons em outras Postagens