VÍDEO AULAS

PARA ASSISTIR AULAS DE: VIOLÃO; GUITARRA; TECLADO E BAIXO, VÁ NOS MARCADORES: DICAS

Contra Baixo: Tríades de RE Maior e RE Menor


By Jeffão Peres

Obs: Tônica  III grau  V Grau

RE Maior
G-------------------2------------------------------------------------
D----4--7--------4-------------7-----------------------7------------
A--5-----------5----------5--9-----------9-12-------9-----------12-
E--------------------------------------10----------10-----10--14----

G-----11-14-----------14------------14-----------------------------
D--12----------12--16------------16----------16--19-----------19--
A-------------------------------17----------17-----------17--21-----
E-----------------------------------------------------------------------

RE Menor
G-----------------2-------------------------------------------------------
D----3--7------3------------7------------------------7------------------
A--5---------5---------5--8-----------8--12-------8---------------12---
E-----------------------------------10-----------10--------10--13-------

G-----10--14------------14------------14---------------------------------
D--12-----------12--15------------15------------15--19------------19---
A-------------------------------17------------17------------17--20-------
E---------------------------------------------------------------------------

Você pode conferir mais tons em outras Postagens