VÍDEO AULAS

PARA ASSISTIR AULAS DE: VIOLÃO; GUITARRA; TECLADO E BAIXO, VÁ NOS MARCADORES: DICAS

Contra Baixo: Tríades de SI Maior e SI Menor


By Jeffão Peres

Obs: Tônica  III grau  V Grau

SI Maior
G------------------------------------------------------------
D----1--4-----------4-----------------------4---------------
A--2----------2--6-----------6--9--------6--------------9--
E-------------------------7-------------7----------7--11-----

G------8--11-----------11------------11-----------------------------
D---9-----------9--13-------------13----------13--16-----------16--
A-------------------------------14----------14-----------14--18-----
E-----------------------------------------------------------------------

SI Menor
G-------------------------------------------------------------
D----0--4----------4------------------------4----------------
A--2---------2--5-----------5--9--------5---------------9---
E-------------------------7------------7----------7--10-----

G------7--11------------11------------11---------------------------------
D---9------------9--12------------12------------12--16------------16---
A-------------------------------14------------14------------14--17-------
E---------------------------------------------------------------------------

Você pode conferir mais tons em outras Postagens