VÍDEO AULAS

PARA ASSISTIR AULAS DE: VIOLÃO; GUITARRA; TECLADO E BAIXO, VÁ NOS MARCADORES: DICAS

Contra Baixo: Tríades de SOL Maior e SOL Menor


By Jeffão Peres

Obs: Tônica  III grau  V Grau

SOL Maior
G---------------------------4--7----------7-----------7--------------
D------------------------5----------5--9-----------9----------9--12-
A----2--5----------5---------------------------10---------10--------
E--3----------3--7----------------------------------------------------

G---------------------------------------------------------------16--19--
D-----------12-----------12--------------------------------17----------
A--10--14------------14-----------14--17------------17---------------
E------------------15-----------15------------15--19------------------

SOL Menor
G--------------------------3--7---------7----------7---------------------------
D------------------------5---------5--8----------8---------8--12-----------12-
A----1--5----------5-------------------------10--------10----------10--13----
E--3---------3--6---------------------------------------------------------------

G--------------------------------------------------15--19-------------19--
D----------12---------------------------------17--------------17--20-----
A------13------------13--17------------17--------------------------------
E--15------------15-------------15--18-----------------------------------

Você pode conferir mais tons em outras Postagens