VÍDEO AULAS

PARA ASSISTIR AULAS DE: VIOLÃO; GUITARRA; TECLADO E BAIXO, VÁ NOS MARCADORES: DICAS

Violão e Guitarra: Diatônica 6 - Escala Maior (Jônico) e Menor Natural (Eólio) LA Maior e FA# Menor

By Jeffão Peres

Escala Diatônica: LA Maior e FA# Menor Natural
Movimento descendente.
Para o movimento ascendente, basta subir com
a mesma digitação

  3° Modelo
E---------------------------------------------------------4--5--7--
B----------------------------------------------3--5--7-------------
G-----------------------------------2--4--6------------------------
D------------------------2--4--6-----------------------------------
A-------------2--4--5----------------------------------------------
E--2--4--5---------------------------------------------------------

  4° Modelo
E----------------------------------------------------------5--7--9--
B-----------------------------------------------5--7--9-------------
G-----------------------------------4--6--7-------------------------
D------------------------4--6--7------------------------------------
A-------------4--5--7-----------------------------------------------
E--4--5--7----------------------------------------------------------

   5° Modelo
E-----------------------------------------------------------7--9--10--
B----------------------------------------------7--9--10---------------
G-----------------------------------6--7--9---------------------------
D------------------------6--7--9--------------------------------------
A-------------5--7--9-------------------------------------------------
E--5--7--9------------------------------------------------------------

   6° Modelo
E---------------------------------------------------------------------9--10--12-
B------------------------------------------------------9--10--12----------------
G-----------------------------------------7--9--11-------------------------------
D----------------------------7--9--11--------------------------------------------
A---------------7--9--11---------------------------------------------------------
E--7--9--10----------------------------------------------------------------------

   7° Modelo
E-----------------------------------------------------------------------------10--12--14
B--------------------------------------------------------------10--12--14---------------
G-----------------------------------------------9--11--13-------------------------------
D--------------------------------9--10--12-----------------------------------------------
A-----------------9--11--12--------------------------------------------------------------
E--9--10--12-----------------------------------------------------------------------------

   1° Modelo
E---------------------------------------------------------------------------------12--14--16-
B------------------------------------------------------------------12--14--15---------------
G---------------------------------------------------11--13--14------------------------------
D-----------------------------------11--12--14----------------------------------------------
A-------------------11--12--14--------------------------------------------------------------
E--10--12--14-------------------------------------------------------------------------------

   2° Modelo
E---------------------------------------------------------------------------------14--16--17-
B-----------------------------------------------------------------14--15--17-----------------
G--------------------------------------------------13--14--16--------------------------------
D----------------------------------12--14--16------------------------------------------------
A------------------12--14--16----------------------------------------------------------------
E--12--14--16-------------------------------------------------------------------------------

Você pode encontrar mais Tons em outras Postagens