VÍDEO AULAS

PARA ASSISTIR AULAS DE: VIOLÃO; GUITARRA; TECLADO E BAIXO, VÁ NOS MARCADORES: DICAS

Violão e Guitarra: Diatônica 7 - Escala Maior (Jônico) e Menor Natural (Eólio) SI Maior e SOL# Menor

By Jeffão Peres

Escala Diatônica: SI Maior e SOL# Menor Natural
Movimento descendente.
Para o movimento ascendente, basta subir com
a mesma digitação

  2° Modelo
E---------------------------------------------------------4--6--7--
B----------------------------------------------4--5--7-------------
G-----------------------------------3--4--6------------------------
D------------------------2--4--6-----------------------------------
A-------------2--4--6----------------------------------------------
E--2--4--6---------------------------------------------------------

  3° Modelo
E----------------------------------------------------------6--7--9--
B-----------------------------------------------5--7--9-------------
G-----------------------------------4--6--8-------------------------
D------------------------4--6--8------------------------------------
A-------------4--6--7-----------------------------------------------
E--4--6--7----------------------------------------------------------

   4° Modelo
E-----------------------------------------------------------7--9--11--
B----------------------------------------------7--9--11---------------
G-----------------------------------6--8--9---------------------------
D------------------------6--8--9--------------------------------------
A-------------6--7--9-------------------------------------------------
E--6--7--9------------------------------------------------------------

   5° Modelo
E---------------------------------------------------------------------9--11--12-
B------------------------------------------------------9--11--12----------------
G-----------------------------------------8--9--11-------------------------------
D----------------------------8--9--11--------------------------------------------
A---------------7--9--11---------------------------------------------------------
E--7--9--11----------------------------------------------------------------------

   6° Modelo
E-----------------------------------------------------------------------------11--12--14
B--------------------------------------------------------------11--12--14---------------
G-----------------------------------------------9--11--13-------------------------------
D--------------------------------9--11--13-----------------------------------------------
A-----------------9--11--13--------------------------------------------------------------
E--9--11--12-----------------------------------------------------------------------------

   7° Modelo
E---------------------------------------------------------------------------------12--14--16-
B------------------------------------------------------------------12--14--16---------------
G---------------------------------------------------11--13--15------------------------------
D-----------------------------------11--13--14----------------------------------------------
A-------------------11--13--14--------------------------------------------------------------
E--11--12--14-------------------------------------------------------------------------------

   1° Modelo
E---------------------------------------------------------------------------------14--16--18-
B-----------------------------------------------------------------14--16--17-----------------
G--------------------------------------------------13--15--16--------------------------------
D----------------------------------13--14--16------------------------------------------------
A------------------13--14--16----------------------------------------------------------------
E--12--14--16-------------------------------------------------------------------------------

Você pode encontrar mais Tons em outras Postagens