VÍDEO AULAS

PARA ASSISTIR AULAS DE: VIOLÃO; GUITARRA; TECLADO E BAIXO, VÁ NOS MARCADORES: DICAS

Violão e Guitarra: Diatônica 1 - Escala Maior (Jônico) e Menor Natural (Eólio) DO Maior e LA Menor

By Jeffão Peres

Escala Diatônica: DO Maior e LA Menor Natural
Movimento descendente.
Para o movimento ascendente, basta subir com
a mesma digitação

  1° Modelo
E---------------------------------------------------------3--5--7--
B----------------------------------------------3--5--6-------------
G-----------------------------------2--4--5------------------------
D------------------------2--3--5-----------------------------------
A-------------2--3--5----------------------------------------------
E--1--3--5---------------------------------------------------------

  2° Modelo
E----------------------------------------------------------5--7--8--
B-----------------------------------------------5--6--8-------------
G-----------------------------------4--5--7-------------------------
D------------------------3--5--7------------------------------------
A-------------3--5--7-----------------------------------------------
E--3--5--7----------------------------------------------------------

   3° Modelo
E-----------------------------------------------------------7--8--10--
B----------------------------------------------6--8--10---------------
G-----------------------------------5--7--9---------------------------
D------------------------5--7--9--------------------------------------
A-------------5--7--8-------------------------------------------------
E--5--7--8------------------------------------------------------------

   4° Modelo
E---------------------------------------------------------------------8--10--12-
B------------------------------------------------------8--10--12----------------
G-----------------------------------------7--9--10-------------------------------
D----------------------------7--9--10--------------------------------------------
A---------------7--8--10---------------------------------------------------------
E--7--8--10----------------------------------------------------------------------

   5° Modelo
E-----------------------------------------------------------------------------10--12--13
B--------------------------------------------------------------10--12--13---------------
G-----------------------------------------------9--10--12-------------------------------
D--------------------------------9--10--12-----------------------------------------------
A-----------------8--10--12--------------------------------------------------------------
E--8--10--12-----------------------------------------------------------------------------

   6° Modelo
E---------------------------------------------------------------------------------12--13--15-
B------------------------------------------------------------------12--13--15---------------
G---------------------------------------------------10--12--14------------------------------
D-----------------------------------10--12--14----------------------------------------------
A-------------------10--12--14--------------------------------------------------------------
E--10--12--13-------------------------------------------------------------------------------

   7° Modelo
E---------------------------------------------------------------------------------13--15--17-
B-----------------------------------------------------------------13--15--17-----------------
G--------------------------------------------------12--14--16--------------------------------
D----------------------------------12--14--15------------------------------------------------
A------------------12--14--15----------------------------------------------------------------
E--12--13--15-------------------------------------------------------------------------------

Você pode encontrar mais Tons em outras Postagens