VÍDEO AULAS

PARA ASSISTIR AULAS DE: VIOLÃO; GUITARRA; TECLADO E BAIXO, VÁ NOS MARCADORES: DICAS

Violão e Guitarra: Escala Pentatônica 1 ( DO Maior e LA Menor )

By Jeffão Peres

Escala Pentatônica DO Maior e LA Menor
Movimento descendente.
Para o movimento ascendente, basta voltar subindo com as 
mesmas notas

   1° Modelo
E-----------------------------------------3--5-
B---------------------------------3--5---------
G--------------------------2--5----------------
D------------------2--5------------------------
A----------3--5--------------------------------
E--3--5----------------------------------------

  2° Modelo
E-----------------------------------------5--8-
B---------------------------------5--8---------
G-------------------------5--7-----------------
D-----------------5--7-------------------------
A----------5--7--------------------------------
E--5--8----------------------------------------

  3° Modelo
E-----------------------------------------------8--10--
B--------------------------------------8--10-----------
G------------------------------7--9---------------------
D---------------------7--10----------------------------
A------------7--10-------------------------------------
E---8--10----------------------------------------------

  4° Modelo
E---------------------------------------------------------10--12--
B----------------------------------------------10--13-------------
G------------------------------------9--12------------------------
D------------------------10--12----------------------------------
A-------------10--12---------------------------------------------
E--10--12--------------------------------------------------------

  5° Modelo
E---------------------------------------------------------12--15--
B----------------------------------------------13--15-------------
G-----------------------------------12--14------------------------
D------------------------12--14-----------------------------------
A-------------12--15----------------------------------------------
E--12--15---------------------------------------------------------

Você também pode conferir mais Tons em outras Postagens.