VÍDEO AULAS

PARA ASSISTIR AULAS DE: VIOLÃO; GUITARRA; TECLADO E BAIXO, VÁ NOS MARCADORES: DICAS

Violão e Guitarra: Escala Pentatônica 3 ( MI Maior e DO# Menor )

By Jeffão Peres

Escala Pentatônica MI Maior e DO# Menor
Movimento descendente.
Para o movimento ascendente, basta voltar subindo com as 
mesmas notas

   4° Modelo
E-----------------------------------------2--4-
B---------------------------------2--5---------
G--------------------------1--4----------------
D------------------2--4------------------------
A----------2--4--------------------------------
E--2--4----------------------------------------

  5° Modelo
E-----------------------------------------4--7-
B---------------------------------5--7---------
G-------------------------4--6-----------------
D-----------------4--6-------------------------
A----------4--7--------------------------------
E--4--7----------------------------------------

  1° Modelo
E-----------------------------------------------7--9-
B-------------------------------------7--9-----------
G-----------------------------6--9-------------------
D---------------------6--9---------------------------
A------------7--9-----------------------------------
E---7--9---------------------------------------------

  2° Modelo
E--------------------------------------------------------9--12--
B----------------------------------------------9--12-----------
G------------------------------------9--11---------------------
D------------------------9--11---------------------------------
A-------------9--11--------------------------------------------
E--9--12-------------------------------------------------------

  3° Modelo
E---------------------------------------------------------12--14--
B----------------------------------------------12--14-------------
G-----------------------------------11--13------------------------
D------------------------11--14-----------------------------------
A-------------11--14----------------------------------------------
E--12--14---------------------------------------------------------

Você também pode conferir mais Tons em outras Postagens.