VÍDEO AULAS

PARA ASSISTIR AULAS DE: VIOLÃO; GUITARRA; TECLADO E BAIXO, VÁ NOS MARCADORES: DICAS

Violão e Guitarra: Escala Pentatônica 4 ( MIb Maior e DO Menor )

By Jeffão Peres

Escala Pentatônica MIb Maior e DO Menor
Movimento descendente.
Para o movimento ascendente, basta voltar subindo com as 
mesmas notas

   4° Modelo
E-----------------------------------------1--3-
B----------------------------------1--4--------
G--------------------------0--3----------------
D------------------1--3------------------------
A----------1--3--------------------------------
E--1--3----------------------------------------

  5° Modelo
E-----------------------------------------3--6-
B---------------------------------4--6---------
G-------------------------3--5-----------------
D-----------------3--5-------------------------
A----------3--6--------------------------------
E--3--6----------------------------------------

  1° Modelo
E---------------------------------------------6--8--
B-------------------------------------6--8----------
G-----------------------------5--8------------------
D---------------------5--8--------------------------
A------------6--8-----------------------------------
E---6--8--------------------------------------------

  2° Modelo
E--------------------------------------------------------8--11-
B----------------------------------------------8--11-----------
G------------------------------------8--10---------------------
D------------------------8--10---------------------------------
A-------------8--10--------------------------------------------
E--8--11-------------------------------------------------------

  3° Modelo
E---------------------------------------------------------11--13--
B----------------------------------------------11--13-------------
G-----------------------------------10--12------------------------
D------------------------10--13-----------------------------------
A-------------10--13----------------------------------------------
E--11--13---------------------------------------------------------

Você também pode conferir mais Tons em outras Postagens.