VÍDEO AULAS

PARA ASSISTIR AULAS DE: VIOLÃO; GUITARRA; TECLADO E BAIXO, VÁ NOS MARCADORES: DICAS

Violão e Guitarra: Escala Pentatônica 5 ( FA Maior e RE Menor )

By Jeffão Peres

Escala Pentatônica FA Maior e RE Menor
Movimento descendente.
Para o movimento ascendente, basta voltar subindo com as 
mesmas notas

   3° Modelo
E-----------------------------------------1--3-
B----------------------------------1--3--------
G--------------------------0--2----------------
D------------------0--3------------------------
A----------0--3--------------------------------
E--1--3----------------------------------------

  4° Modelo
E-----------------------------------------3--5-
B---------------------------------3--6---------
G-------------------------2--5-----------------
D-----------------3--5-------------------------
A----------3--5--------------------------------
E--3--5----------------------------------------

  5° Modelo
E---------------------------------------------5--8--
B-------------------------------------6--8----------
G-----------------------------5--7------------------
D---------------------5--7--------------------------
A------------5--8-----------------------------------
E---5--8--------------------------------------------

  1° Modelo
E--------------------------------------------------------8--10-
B----------------------------------------------8--10-----------
G------------------------------------7--10---------------------
D------------------------7--10---------------------------------
A-------------8--10--------------------------------------------
E--8--10-------------------------------------------------------

  2° Modelo
E---------------------------------------------------------10--13--
B----------------------------------------------10--13-------------
G-----------------------------------10--12------------------------
D------------------------10--12-----------------------------------
A-------------10--12----------------------------------------------
E--10--13---------------------------------------------------------

Você também pode conferir mais Tons em outras Postagens.