VÍDEO AULAS

PARA ASSISTIR AULAS DE: VIOLÃO; GUITARRA; TECLADO E BAIXO, VÁ NOS MARCADORES: DICAS

Violão e Guitarra: Escala Pentatônica 6 ( SOL Maior e MI Menor )

By Jeffão Peres

Escala Pentatônica SOL Maior e MI Menor
Movimento descendente.
Para o movimento ascendente, basta voltar subindo com as 
mesmas notas

   2° Modelo
E-----------------------------------------0--3-
B----------------------------------0--3--------
G--------------------------0--2----------------
D------------------0--2------------------------
A----------0--2--------------------------------
E--0--3----------------------------------------

  3° Modelo
E-----------------------------------------3--5-
B---------------------------------3--5---------
G-------------------------2--4-----------------
D-----------------2--5-------------------------
A----------2--5--------------------------------
E--3--5----------------------------------------

  4° Modelo
E---------------------------------------------5--7--
B-------------------------------------5--8----------
G-----------------------------4--7------------------
D---------------------5--7--------------------------
A------------5--7-----------------------------------
E---5--7--------------------------------------------

  5° Modelo
E------------------------------------------------------7--10-
B--------------------------------------------8--10-----------
G----------------------------------7--9------------------------
D------------------------7--9----------------------------------
A-------------7--10--------------------------------------------
E--7--10-------------------------------------------------------

  1° Modelo
E---------------------------------------------------------10--12-
B----------------------------------------------10--12-----------
G-----------------------------------9--12------------------------
D------------------------9--12-----------------------------------
A-------------10--12--------------------------------------------
E--10--12-------------------------------------------------------

Você também pode conferir mais Tons em outras Postagens.