VÍDEO AULAS

PARA ASSISTIR AULAS DE: VIOLÃO; GUITARRA; TECLADO E BAIXO, VÁ NOS MARCADORES: DICAS

Violão e Guitarra: Escala Pentatônica Blues 6 - Blue Note ( FA )

By Jeffão Peres

Escala Pentatônica Blues de FA
Movimento descendente.
Para o movimento ascendente, basta voltar subindo com as 
mesmas notas
Blue Notes

   2° Modelo
E---------------------------------------------1--4-
B---------------------------------------1--4-------
G----------------------------1--3--4--------------
D---------------------1--3-------------------------
A----------1--2--3--------------------------------
E--1--4--------------------------------------------

  3° Modelo
E-----------------------------------------4--6--7--
B-----------------------------------4--6-----------
G-------------------------3--4--5-----------------
D-------------------3--6---------------------------
A-------------3--6---------------------------------
E--4--6--7----------------------------------------

  4° Modelo
E----------------------------------------------6--7--8--
B---------------------------------------6--9-------------
G--------------------------------5--8--------------------
D---------------------6--8--9---------------------------
A--------------6--8--------------------------------------
E---6--7--8---------------------------------------------

  5° Modelo
E------------------------------------------------------------8--11-
B----------------------------------------------9--11--12----------
G------------------------------------8--10--------------------------
D------------------------8--9--10----------------------------------
A-------------8--11-------------------------------------------------
E--8--11------------------------------------------------------------

  1° Modelo
E------------------------------------------------------------------11--13--
B--------------------------------------------------11--12--13-------------
G----------------------------------------10--13----------------------------
D------------------------------10--13---------------------------------------
A-------------11--13--14--------------------------------------------------
E--11--13-------------------------------------------------------------------

Você também pode conferir mais Tons em outras Postagens.