VÍDEO AULAS

PARA ASSISTIR AULAS DE: VIOLÃO; GUITARRA; TECLADO E BAIXO, VÁ NOS MARCADORES: DICAS

Violão e Guitarra: Escala Pentatônica Blues 3 -Blue Note ( DO )

By Jeffão Peres

Escala Pentatônica Blues de DO
Movimento descendente.
Para o movimento ascendente, basta voltar subindo com as 
mesmas notas

Blue Notes
   4° Modelo
E-------------------------------------------1--2--3-
B-------------------------------------1--4----------
G-------------------------------0--3----------------
D--------------------1--3--4-----------------------
A-------------1--3----------------------------------
E--1--2--3-----------------------------------------

  5° Modelo
E----------------------------------------------3--6-
B-----------------------------------4--6--7-------
G---------------------------3--5-------------------
D-----------------3--4--5-------------------------
A----------3--6------------------------------------
E--3--6--------------------------------------------

  1° Modelo
E--------------------------------------------------6--8--
B---------------------------------------6--7--8---------
G-------------------------------5--8--------------------
D-----------------------5--8----------------------------
A------------6--8--9-----------------------------------
E---6--8------------------------------------------------

  2° Modelo
E-----------------------------------------------------------8--11-
B--------------------------------------------------8--11-----------
G------------------------------------8--10--11-------------------
D--------------------------8--10----------------------------------
A-------------8--9--10-------------------------------------------
E--8--11----------------------------------------------------------

  3° Modelo
E----------------------------------------------------------------11--13--14-
B------------------------------------------------------11--13-----------------
G--------------------------------------10--11--12---------------------------
D---------------------------10--13-------------------------------------------
A-----------------10--13-----------------------------------------------------
E--11--13--14---------------------------------------------------------------

Você também pode conferir mais Tons em outras Postagens.