VÍDEO AULAS

PARA ASSISTIR AULAS DE: VIOLÃO; GUITARRA; TECLADO E BAIXO, VÁ NOS MARCADORES: DICAS

Bate o Sino de Belém - Jingle bells (Chord melody para violão e guitarra - harmonia e melodia)

Bate o sino de Belém - Jingle bells
By Jeffão Peres
Tablatura: Chord Melody

E---0---0---0----0---0---0---0---3-----------0----1---1---1----1---0---0-
B---1-------------1------------1-------1---3--------1--------------1----------
G--0-------------0------------0----------------------2-------------0----------
D------------------------------------------------------3-------------------------
A--3-------------3------------3-------------------------------------3----------
E--------------------------------------------------------------------------------- 
                                      
E---0------------0-------3----       
B---3---3---3-------3--------       
G--2----------------0---------       
D--------------------0---------       
A------------------------------        
E---2----------------3---------         

E---0---0---0----0---0---0---0---3-----------0----1---1---1----1---0---0-
B---1-------------1------------1-------1---3--------1--------------1----------
G--0-------------0------------0----------------------2-------------0----------
D------------------------------------------------------3-------------------------
A--3-------------3------------3-------------------------------------3----------
E---------------------------------------------------------------------------------
                                       
E---3---3---1-------------
B---0------------3---1---
G--0-----------------0---
D---------------------2---
A---------------------3---
E---3----------------------

E----------------0-----------------------------0----------------------------1--0----
B----------------1---3---1-------------------1---3---1--------------------------3-
G--0---0---0--0------------0---0--0--0---0-----------2---2---2---2-----------
D-----------------------------2----------------------------3-------------------------
A----------------3-----------3----------------3-----------3-------------------------
E------------------------------------------------------------1------------------------
                                                               
E--------3---5---3------------0---            
B---0---3------------3---4---1---             
G--0---4----------------------0--             
D--0---5-------------------------            
A-------------------------------3--           
E---3------------------------------    
          
E----------------0-----------------------------0----------------------------1--0----
B----------------1---3---1-------------------1---3---1--------------------------3-
G--0---0---0--0------------0---0--0--0---0-----------2---2---2---2-----------
D-----------------------------2----------------------------3-------------------------
A----------------3-----------3----------------3-----------3-------------------------
E------------------------------------------------------------1------------------------
                                                         
E---3---3---3---3---5---3---1-----------
B---0-----------------3------------3---1--
G--0-----------------4-----------------0--
D---------------------5-----------------2--
A----------------------------------------3--
E---3----------------------------------------