VÍDEO AULAS

PARA ASSISTIR AULAS DE: VIOLÃO; GUITARRA; TECLADO E BAIXO, VÁ NOS MARCADORES: DICAS

Hino Nacional Brasileiro: Chord Melody - Acorde e melodia para Violão e Guitarra

Hino Nacional Brasileiro
Tablatura: Chord Melody

Introdução 
E---------------------------------------------------------------------------------------------
B--------------------------------------------------------------------1-----------------------
G--------------------------------------------2---2---2---1---2---2-------------------- --
D---------------------3---3---3---2---3---3----------------------3---3-------------3---
A--3---3---2---3---3----------------------3---------------------------3---3---3---3---
E---------------------1----------------------1----------------------1----1------------1---


E----------------------------------------------------------------------------------------------
B----------------------------------------------------------------------------------------------
G-------0-------2---0---3---2----------0--------------------0---0---0------0----3------
D---2-------3-----------------------4----0---0---0------0---0-----------4--------0------
A------------------------------------3----1------------4-------1----------------------------
E-------------------------------------2----3--------------------3---------------------3------


E-----------------------------3---3---1---1---0---0-----------------------------------------
B-----------------------3----3--------------------------3---3---1---1-----------------------
G---3---3---2---3---3----3---------------------------------------------3----1----2-------
D--------0------------3---------------------------------------------------------0----3-------
A-------------------------------------------3------------------------------------2----3-------
E--------3-------------3----3---------------------------------------------------1----1-------


E----------------------------------------------------------------------------------------------
B----------------------------------------------------------------------------------------------
G---------------------------------------------2-------------------------0---0------0---3---
D----------------------3---3---3---2---3---3---3---3---2---3---0----------4-------0---
A---3---3---2---3---3----------------------3----------------------1------------------1---
E----------------------1----------------------1----------------------3------------------3----


E------------------------------------------------------------------------------------------------
B---------------------------------------------1-------------------------------------------------
G--0---0------0--------2---2---1---2----2---2---2---1---2--------3---3---2---3-------
D-----------4-------2-----------------------2----------------------3--------------------------
A--------------------0-----------------------0----------------------1-------------------------
E------------------------------------------------------------------------------------------------


E-----------------------------------------------------------
B--------1---1---0---1-----------------------------------
G---0---------------------2-------------------------------
D---2---------------------3---3---2---0-------2---3----
A---3---------------------3---5------------3---3---3----
E--------------------------1---6------------1---0---1----

1° estrofe
E-------------------------------------------------------------------------------------------------
B----------------------------------------------0---1---------------------------------------------
G----------------------0---2---0---2---3---1---2---------------------0-------2----0---3---
D--------3---2---3--------3-----------------0---3---3--------3---2------3---3-------------
A---3---3------------------3--------------------------3----3---3---------------3-------------
E--------1------------------1-----------------1---1---1--------1----------------1------------


E-------------------------------------------------------------------------------------------------
B----------------------------------------------------------1---2---3----------------------------
G--2---------0---------0---------0---2---3---2---3--------3-------0--------0-----0---2--
D--------4---0----------0----4------------4-----------------2------------0---2---4----------
A--------3---1----3----1-------------------------------------------------------3--------------
E---------2---3---------3-------------------3-----------------3--------------------------------


E-------------------------------------------------------------------------------------------------
B------------1-------------------------------------------------------3---1----------------------
G--3---2-------3---1---2----2---2---3---2---2---3---2---2---2-------3---3---2---2----
D--2------------2---0---3-------------2-------------2-------3---3------------2--------------
A--3------------3---2---3-------------0-------------4-------5-----------------0-------------
E---------------------1---1---------------------------------------------------------------------


E-------------------------------------------------------------------------------------------------
B--------------------------------------------------------------------------1---0-----------------
G--0---0---------------------------0---0---2---0---0---2---0----0-----------2---2---0----
D------------3---3---2---2---0-------------0-----------------0----2---------------0---------
A-------4-----------------5---0--------------------------------2-----3-------------------------
E-------------------------------1-------------3----------------------------------------3---------


E---------------------------------------------------------------------------------------------------
B---------------------------------------------------------------------------------------------------
G--0---------------------------------------------0---3-----------0---3-----------0---3---3----
D-------3---3---2---2---0---0-------------2----------------2----------------2-----------2----
A-----------2-----------------------3----3----------------3----------------3---------------3---
E------------3--------------------------------------------------------------------------------0----


2° estrofe
E-------------------------------------------------------------------------------------------------
B----------------------------------------------0---1---------------------------------------------
G----------------------0---2---0---2---3---1---2---------------------0-------2----0---3---
D--------3---2---3--------3-----------------0---3---3--------3---2------3---3-------------
A---3---3------------------3--------------------------3----3---3---------------3-------------
E--------1------------------1-----------------1---1---1--------1----------------1------------


E-------------------------------------------------------------------------------------------------
B----------------------------------------------------------1---2---3----------------------------
G--2---------0---------0---------0---2---3---2---3--------3-------0--------0-----0---2--
D--------4---0----------0----4------------4-----------------2------------0---2---4----------
A--------3---1----3----1-------------------------------------------------------3--------------
E---------2---3---------3-------------------3-----------------3--------------------------------


E-------------------------------------------------------------------------------------------------
B------------1-----------------------------------------------------------------------------------
G--3---2-------3---1---2---------0--------------------------0------------3---3---0---2---
D--2------------2---0---3----3---1---3---2---3---2---3---1---3---3-------3--------0---
A--3------------3---2---3---------0--------------------------0--------5-------5-------------
E---------------------1---1---------1--------------------------1--------6-------6--------3---


E-------------------------------------------------------------------------------------------------
B-------------------------------------1---1------------------------------------------------3----
G--0------0------0---2---0---0--------0---2---3---2-------2-------2---3---2---2---2---
D------4------4------------0---2--------2-------2--------6-------6-------2---2---3---3---
A---------------------------2---3--------3-------0--------------------------0---4---5---5---
E-------------------------------------------------------------------------------------------------


E--------------------------------------------------------------------------------------------------
B----1--------------------------------------------------------------------------------------------
G---3---3---0--0----------------0---3--2---------------------3---0---0--------0---2---3--
D---3------------2---3---2---3------3-----2---3---------0---0--------2---3---2------------
A---1------------3---3---3----------------------------4-----------------3---3---3------------
E-----------------0---1---------------1----------------3--------3------------1-----------------


E----------------------------------------------------------------
B---0---1-------------------------------------------------------
G--1---2---2-------------3---2-------------------------------
D--0---3--------3---0--------3---3---0--------0---2---3---
A---------------------1--------3-------------3-------3---3---
E--1---1-------------3-----------------------3-------0---1---


Final
E----------------------------------------------------------------------------------
B----------------------------------------------------------------------------------
G-------------------------------------------------------------------2------------
D--3----------------------------------------------------------3----3--------3---
A------3---0---------------------0---0---0---3---3---3---------3--------3---
E--------------1------1---1---1-----------------------------------1--------1----


Você encontrará nos marcadores: Hino Nacional BrasileiroCifrado, Hino Nacional Brasileiro Solo para Violão e Guitarra, Hino Nacional Brasileiro Solo para Teclado e Hino Nacional Brasileiro Chord Melody para Violão e Guitarra