VÍDEO AULAS

PARA ASSISTIR AULAS DE: VIOLÃO; GUITARRA; TECLADO E BAIXO, VÁ NOS MARCADORES: DICAS

Noite Feliz - Silent Night (Bass melody para violão e guitarra - Baixo e melodia)

Noite Feliz - Silent Night
By Jeffão Peres
Tablatura: Bass melody

E---0---2---0---------0---2---0---------7---7---4----5---5--0-
B-----------------2------------------2------------------------------
G--------------------------------------------------------------------
D---------------------------------------------------------------------
A---0------------0----0------------0--------------------0----------
E-------------------------------------------0-------------------------


E---2---2---5---4---2---0---2---0--------2---2---5---4---2---0-
B----------------------------------------2-----------------------------
G----------------------------------------------------------------------
D--0--------0-------------------------------0--------0---------------
A-------------------------4-------------0---------------------------4-
E------------------------------------------------------------------------


E--2---0--------7----7----10----7----4---5----9---
B-----------2-------------------------------------------
G-------------------------------------------------------
D---------------------------------------------4--------
A----------0----------------11--------------------6---
E----------------0--------------------------------------


E----5---0-------0----------------
B-------------2-------3---0-------
G------------------------------2--
D----------------------------------
A---0--------------------------0--
E-----------------0----------------