VÍDEO AULAS

PARA ASSISTIR AULAS DE: VIOLÃO; GUITARRA; TECLADO E BAIXO, VÁ NOS MARCADORES: DICAS

Noite Feliz - Silent Night (Chord melody para violão e guitarra - Acorde e melodia)

Noite Feliz - Silent Night
By Jeffão Peres
Tablatura: Chord melody

E------------------------------------------------------------------------------
B------------------------------------------3---3---0----1---1---------------
G---0---2---0--------0---2---0--------0--------0----0-------0---2---2-
D---2------------2----2------------2----0--------3----2-------2---3------
A---3------------------3---------------------------2----3-------3---3-----
E------------------------------------------3-----------------------0---1------


E--------------------------------------------------------------------------
B---1---0-----------------------------------1---0------------------------
G--2-------2---0---2---0--------2---2---2-------2---0---2---0-----
D---1-----------2------------2----3-------1------------2------------2-
A----------------2------------3----3--------------------2------------3-
E---2------------0-----------------1-------2------------0---------------


E-------------1-------------------0-----------------------------------
B---3---3---0----3--------1----1----1-------------------------1--
G--0--------0----4---4---2----2----0---0-------0------------0--
D---0-------------3--------2---------2-------2---0---3---0---2--
A---------------------------0---------3------------2------------3--
E---3--------3----4--------------2----------------3----------------