VÍDEO AULAS

PARA ASSISTIR AULAS DE: VIOLÃO; GUITARRA; TECLADO E BAIXO, VÁ NOS MARCADORES: DICAS

Tablatura: Chord Melody 4 : Wave ( Acordes - Melodia - Solo - Violão e Guitarra )

By Jeffão Peres
Wave

E----------------5---------------------------------------5---5---7---5---
B-------3---2---2--------------------5---8---7---10---5---4--------3---
G---4-----------2-----------3---6------------6 ---7----5---5--------4---
D---------------0---4---5---------------------5---7-------- 0--------5---
A------------------------------------------------------- 0----------------
E------------------------6---------------------6---7----------------------

E---3---3---2---3---2---3---5---2---2-- 5---4---3---2-----------------
B----------------3----------------2-------4----------------7-------------
G----------------3----------------3-------2----------------7---7---7----
D----------------2------------------------------------------6-------------
A------------------------------------------2----------------7-------------
E----------------------------------2---------------------------------------

E------------------------------4---3-------1------------------------------
B------------5---6------------3---2---3---1---3---3---------------------
G---4---7-------7---7---5---1---0------- 2-------3---5---3-------------
D----------------6------------------------- 0------ 3------------7---5----
A-----------------------------1---0---------------------------------------
E----------------6----------------------------------3-----------------6---

E----------------------------------------------------------------------------
B-------------------- ----1------------------------------------3----------5-
G----------- 7---5---5-- 1---3---1------------------5---3-- 4--4--7--6---
D---7---8-------5---4---1-----------5---3---5---6-----3---5-------------
A--------------------6----------------------------------------0-------------
E----------------5-------1--------------- 4---------------3-----------------

Mais temas em Tablatura Chord Melody que você pode conferir em 
outras postagens:
Pomp and circumstance - Love me tender - Eu navegarei - Wave -
Pour Elise - Mais perto quero estar - Buscai primeiro - Not of this world -
Escorregando - Minueto - Nona Sinfonía - Jesus - Jazz blues 1 - Samba
de uma nota só - A Ele a glória ( porque Dele e por Ele ) - Vem! esta é
a hora - Oceano - O Barquinho - Sampa - Te agradeço - Meu bem 
querer - Garota de Ipanema - Eu sei que vou te amar - Carinhoso -
Coração de estudante - Este é o meu respirar - Assim como a corça -
A pantera cor de rosa - Em espírito e em verdade - Ele é exaltado -
Gente humilde - Poderoso Deus - Aclame ao Senhor - Santo! Santo!
Santo! cc9 - Yesterday - Over the rainbow - Os flintstones - Love of my
life - Quão preciosa são as horas - Pela luz dos olhos teus - My way -
Dei graças - Tristesse - Olha pra mim - Against all odds - True colors -
Heaven - Sonho de amor - Quanto amor - I want to know what love is -
Sou feliz com Jesus - Tears in heaven - Nos galhos secos - You'll be
in my heart