VÍDEO AULAS

PARA ASSISTIR AULAS DE: VIOLÃO; GUITARRA; TECLADO E BAIXO, VÁ NOS MARCADORES: DICAS

Violão e Guitarra: Acordes Simples 3 ( Em, B7, Am, Dm, G7, D, Bm, G, E, A, D7 )

By Jeffão Peres


Acordes Simples

             Em            B7
E-------0----------2-----
B-------0----------0-----
G-------0----------2-----
D-------2----------1-----
A-------2----------2-----
E-------0----------------
          Am            Dm           G7
E-------0----------1----------1--
B-------1----------3----------0--
G-------2----------2----------0--
D-------2----------0----------0--
A-------0---------------------2--
E-----------------------------3--
           D            Bm             G
E-------2---------2-----------3--
B-------3---------3-----------0--
G-------2---------4-----------0--
D-------0---------0-----------0--
A------------------------------2--
E------------------------------3--
          E              A
E------0----------0---
B------0----------2---
G------1----------2---
D------2----------2---
A------2----------0---
E------0---------------
         Am            D7            G
E------0----------2----------3--
B------1----------1----------0--
G------2----------2----------0--
D------2----------0----------0--
A------0---------------------2--
E----------------------------3--
Dedos da mão esquerda
1 Indicador
2 Médio
3 Anelar
4 Mínimo

Você pode conferir mais categorias de Acordes em outras
postagens.