VÍDEO AULAS

PARA ASSISTIR AULAS DE: VIOLÃO; GUITARRA; TECLADO E BAIXO, VÁ NOS MARCADORES: DICAS

Escalas: Abertas ( Pentatônica Maior e Menor, Modo Jônico, Mixolídio, Eóleo, Menor Harmônica )

By Jeffão Peres

Mostrarei algumas digitações das escalas mais utilizadas.
Todas elas abertas ( usando corda solta) e  com apenas uma oitava.
Procure "cantar" junto com as notas, para que você aprenda a sonoridade de cada modo

Todas as escalas estão no tom de DO

      Pentatônica Maior                             Pentatônica Menor
E------------------------------------------   -----------------------------------
B-------------------1--1-------------------  ----------------1--1--------------
G------------0--2---------2--0------------  ----------0--3-------3--0---------
D-----0--2-----------------------2--0-----  ----1--3-------------------3--1---
A--3------------------------------------3-   - 3-------------------------------3-
E------------------------------------------   ------------------------------------

        Modo Jônico ( Maior)
E-----------------------------------------------------------
B-----------------------0--1--1--0-------------------------
G----------------0--2----------------2--0------------------
D------0--2--3-----------------------------3--2--0---------
A---3-------------------------------------------------3-----
E------------------------------------------------------------

        Modo Mixolídio ( Maior c/ 7° menor)
E------------------------------------------------------------
B--------------------------1--1-----------------------------
G----------------0--2--3---------3--2--0-------------------
D------0--2--3-----------------------------3--2--0---------
A---3-------------------------------------------------3-----
E------------------------------------------------------------

       Modo Eóleo ( Menor Natural)
E------------------------------------------------------------
B--------------------------1--1-----------------------------
G----------------0--1--3---------3--1--0-------------------
D------0--1--3-----------------------------3--1--0---------
A---3-------------------------------------------------3-----
E------------------------------------------------------------

       Menor Harmônica
E------------------------------------------------------------
B-----------------------0--1--1--0--------------------------
G----------------0--1----------------1--0-------------------
D------0--1--3-----------------------------3--1--0---------
A---3-------------------------------------------------3-----
E------------------------------------------------------------