VÍDEO AULAS

PARA ASSISTIR AULAS DE: VIOLÃO; GUITARRA; TECLADO E BAIXO, VÁ NOS MARCADORES: DICAS

Tablatura: Chord Melody 6 : Mais perto quero estar ( Acordes - Melodia - Solo - Violão e Guitarra )

By Jeffão Peres
Mais perto quero estar

E--2--0-------------------------2--0--2--0--------------------
B--3--2--3--3--0--0-----3--3-----2--3--1--3--3--0-------3--
G--2--0--2--0-----0--2-----2-----0--2--0--2--0-----4--2----
D--0-----0--0-----0--0-----0-------- 0----- 0--0---- 3--0----
A-----0--2 -------- ---------2-----0----- 0-------------- 0----
E------------3-----3-------------------------2--3-----4-------

E-----0----- 5--7--5--5------5--5- 7--5--5--2--0- 2--0------
B--2----3---7--8--5--7-- 7--7--7--8--7--5--3--2--3--1--3---
G--0----2---7--7--7--7--7--7--7--7--7--2--2--0--2--0-- 2--
D--2----0---0--0--0--0--0--0--0--5--0----- 0-----0------0--
A--0-------------------------------------- 4------0-------------
E---------------------------------------------------------0-- 2-

E-----------------------------
B--3--0---------3--2--5--3--
G--0-----4--2-- 2--0--4--2--
D--0-----3--4-- 0--2--5--4--
A------------5-- 2-----0--5--
E--3-----4--5------0--------

Mais temas em Tablatura Chord Melody que você pode conferir em 
outras postagens:
Pomp and circumstance - Love me tender - Eu navegarei - Wave -
Pour Elise - Mais perto quero estar - Buscai primeiro - Not of this world -
Escorregando - Minueto - Nona Sinfonía - Jesus - Jazz blues 1 - Samba
de uma nota só - A Ele a glória ( porque Dele e por Ele ) - Vem! esta é
a hora - Oceano - O Barquinho - Sampa - Te agradeço - Meu bem 
querer - Garota de Ipanema - Eu sei que vou te amar - Carinhoso -
Coração de estudante - Este é o meu respirar - Assim como a corça -
A pantera cor de rosa - Em espírito e em verdade - Ele é exaltado -
Gente humilde - Poderoso Deus - Aclame ao Senhor - Santo! Santo!
Santo! cc9 - Yesterday - Over the rainbow - Os flintstones - Love of my
life - Quão preciosa são as horas - Pela luz dos olhos teus - My way -
Dei graças - Tristesse - Olha pra mim - Against all odds - True colors -
Heaven - Sonho de amor - Quanto amor - I want to know what love is -
Sou feliz com Jesus - Tears in heaven - Nos galhos secos - You'll be
in my heart